Sound will begin in 5 seconds

EMOTIONS

01234567891011121314151617181920212223
E
B
G
D
A
E
B
0 1 2 3 4 5 6 7 8 9 10 11 12 13 14 15 16 17 18 19 20 21 22 23
Song Science #1: How Pros Use 6 Chords to Write Hit Songs
(/) Slide Up  (\) Slide Down  (h) Hammer On  (p) Pull Off  (b) Bend (r) Release (v) Vibrato

Stave 1:

E|-----------------------------------------------------------------------------
B|-----------------------------------------------------------------------------
G|---------0---------------------------------------------5---------5-----8-7-5-
D|-------2h--2-0---------2-------------2-2-0-----------5---7h5---5---7h5-------
A|-2h2p2---------2-0-2\4---2-0-2-0-2\4-------2-0-2-2\7---------0---------------
E|-----------------------------------------------------------------------------

Stave 2:

E|-----------------------------------------|-
B|-----------------------------------------|-
G|-----------------------------3-----------|-
D|-7h5-------7-5-3-2-0-2---2h2---2-0-------|-
A|-----7-5-7-------------0-----------2-0-2-|-
E|-----------------------------------------|-

Stave 3:

E|----------------------------------|---------------------------------|---------------------------------|-
B|----------1---------------1-------|---------1---------------1-------|---------------------------------|-
G|------2-------2-------2-------2---|-----0-------0-------0-------0---|-----0---4---0-------0---4---0---|-
D|----2---2---2---2---2---2---2---2-|---2---2---2---2---2---2---2---2-|---0---0---0---0---0---0---0---0-|-
A|--0---------------0---------------|-3---------------3---------------|-2---------------2---------------|-
E|----------------------------------|---------------------------------|---------------------------------|-

Stave 4:

E|----------------------------------|---------------------------------|---------------------------------|-
B|----------------------------------|---------------------------------|---------------------------------|-
G|------2---2---2-------2---2---2---|-----0---0---0-------0---0---0---|-----0---4---0-------0---4---3---|-
D|----2---2---2---2---2---2---2---2-|---2---2---2---2---2---2---2---2-|---0---0---0---0---0---0---2---2-|-
A|--0---------------0---------------|-3---------------3---------------|-2---------------2---------------|-
E|----------------------------------|---------------------------------|---------------------------------|-

Stave 5:

E|----------------------------------|-------------------------------------------------
B|----------1h--------------1h------|---------1h--------------1h------1h------1h------
G|------2-------2-------2-------2---|-----0-------0-------0-------0-------0-------0---
D|----2---2---2---2---2---2---2---2-|---2---2---2---2---2---2---2---2---2---2---2---2-
A|--2---------------2---------------|-3---------------3-------------------------------
E|----------------------------------|-------------------------------------------------

Stave 6:

E|------------------|-----------------------------------------------------|-
B|--3h------1-------|---1h------1---------1-------3-------1-------0-------|-
G|------0-------0---|-------0-------0---------0-------0-------0-------0---|-
D|----2---2---2---2-|-----2---2---2---2-----2---2---2---2---2---2---2---2-|-
A|------------------|-3-----------------2---------------------------------|-
E|------------------|-----------------------------------------------------|-

Stave 7:

E|------------------------------------------------------------------------------------------------------
B|----0-------1-------3-------1---------0-------1-------3-------1---------1-------3-------1-------0-----
G|--------2-------2-------2-------2---------2-------2-------2-------2---------2-------2-------2-------2-
D|------2---2---2---2---2---2---2---2-----2---2---2---2---2---2---2---2-----2---2---2---2---2---2---2---
A|--0---------------------------------3---------------------------------2-------------------------------
E|------------------------------------------------------------------------------------------------------

Stave 8:

E|----|---------------------------------------------------------------------|-------------------------
B|----|---5-------3-------1-------0---------3-------1-------0-------1-------|---1-------1-------1h----
G|----|-------2-------2-------2-------2---------2-------2-------2-------2---|-------2-------2-------2-
D|--2-|-----2---2---2---2---2---2---2---2-----2---2---2---2---2---2---2---2-|-----2---2---2---2---2---
A|----|-3---------------------------------3---------------------------------|-2-----------------------
E|----|---------------------------------------------------------------------|-------------------------

Stave 9:

E|--------------------------------------------------------------------|-----------------------------
B|----1---------3-------3---------1h3-------1---------1h------1-------|---1-------3-------1-------0-
G|--------2---------2-------2-----------2-------2---------2-------2---|-------2-------2-------2-----
D|--2---2---2-----2---2---2---2-------2---2---2---2-----2---2---2---2-|-----2---2---2---2---2---2---
A|------------2-----------------2-------------------2-----------------|-0---------------------------
E|--------------------------------------------------------------------|-----------------------------

Stave 10:

E|--------|-----------------------------------|---------------------------------------------------|-
B|--------|---1-------3-------1-------0-------|---1-------1-------1h------1-------1-------1-------|-
G|----2---|-------2-------2-------2-------2---|-------2-------2-------2-------2-------2-------2---|-
D|--2---2-|-----2---2---2---2---2---2---2---2-|-----2---2---2---2---2---2---2---2---2---2---2---2-|-
A|--------|-3---------------------------------|-0-------------------------------------------------|-
E|--------|-----------------------------------|---------------------------------------------------|-

Stave 11:

E|----0-------------------------------|---0-------------------------------|---------------------------
B|------------3-------1-------0-------|-----------3-------1-------0-------|---0-------1-------3-------
G|--------2-------2-------2-------2---|-------0-------0-------0-------0---|-------0-------0-------0---
D|------2---2---2---2---2---2---2---2-|-----2---2---2---2---2---2---2---2-|-----0---0---0---0---0---0-
A|--0---------------------------------|-3---------------------------------|-2-------------------------
E|------------------------------------|-----------------------------------|---------------------------

Stave 12:

E|----------|-----------------------------------|---0-------------------------------|-------------------
B|--1-------|---0-------1-------3-------1-------|-----------3-------1-------0-------|---0-------1-------
G|------0---|-------2-------2-------2-------2---|-------0-------0-------0-------0---|-------2-------2---
D|----0---0-|-----2---2---2---2---2---2---2---2-|-----0---0---0---0---0---0---0---0-|-----2---2---2---2-
A|----------|-0---------------------------------|-----------------------------------|-0-----------------
E|----------|-----------------------------------|-3---------------------------------|-------------------

Stave 13:

E|------------------|-----------------------------------------------------------------|-----------------
B|--3-------1-------|---------1---------------1---------------1-------3-------1-------|---------1-------
G|------2-------2---|-----0-------0-------0-------0-------2-------2-------2-------2---|-----0-------0---
D|----2---2---2---2-|---2---2---2---2---0---0---0---0---2---2---2---2---2---2---2---2-|---2---2---2---2-
A|------------------|-3---------------2---------------0-------------------------------|-3---------------
E|------------------|-----------------------------------------------------------------|-----------------

Stave 14:

E|--------------------------------------------------------------------|-----------------------------
B|----------1---------------1h--------------1---------1h------1-------|---5-------3-------1-------0-
G|------0-------0-------0-------0-------0-------0---------0-------0---|-------0-------0-------0-----
D|----2---2---2---2---2---2---2---2---0---0---0---0-----0---0---0---0-|-----0---0---0---0---0---0---
A|--3---------------3---------------2---------------2-----------------|-3---------------------------
E|--------------------------------------------------------------------|-----------------------------

Stave 15:

E|--------|-----------------------------------|-------------------------------------|---------------
B|--------|---3-------1-------0-------1-------|---1\3-------1-------0-------1-------|---3\5-------3-
G|----0---|-------0-------0-------0-------0---|---------0-------0-------0-------0---|---------0-----
D|--0---0-|-----0---0---0---0---0---0---0---0-|-------0---0---0---0---0---0---0---0-|-------0---0---
A|--------|-3---------------------------------|-0-----------------------------------|-0-------------
E|--------|-----------------------------------|-------------------------------------|---------------

Stave 16:

E|------------------------|---------------------------|-------------------------------------|-
B|--------1-------0-------|---3-------1-------0-------|---1-------1---------1-------1-------|-
G|----0-------0-------0---|-------0-------0-------0---|-------2-------2---------0-------0---|-
D|--0---0---0---0---0---0-|-----0---0---0---0---0---0-|-----2---2---2---2-----2---2---2---2-|-
A|------------------------|-2-------------------------|-0-----------------3-----------------|-
E|------------------------|---------------------------|-------------------------------------|-

Stave 17:

E|----------------------------------|-----------------------------------------|-
B|----------1---------------1h------|---------1-------1-------1h------1-------|-
G|------0-------0-------0-------0---|-----2-------2-------2-------2-------2---|-
D|----0---0---0---0---0---0---0---0-|---2---2---2---2---2---2---2---2---2---2-|-
A|--2---------------2---------------|-0---------------------------------------|-
E|----------------------------------|-----------------------------------------|-

Stave 18:

E|----0-------------------------------|---0-------------------------------|-----------------------------
B|------------3-------1-------0-------|-----------3-------1-------0-------|---0-------1-------3-------1-
G|--------2-------2-------2-------2---|-------0-------0-------0-------0---|-------0-------0-------0-----
D|------2---2---2---2---2---2---2---2-|-----2---2---2---2---2---2---2---2-|-----0---0---0---0---0---0---
A|--0---------------------------------|-3---------------------------------|-2---------------------------
E|------------------------------------|-----------------------------------|-----------------------------

Stave 19:

E|--------|-----------------------------------|-----------------------------------|-------------------
B|--------|---0-------1-------3-------1-------|---3-------1-------0-------1-------|---1-------1-------
G|----0---|-------2-------2-------2-------2---|-------0-------0-------0-------0---|-------0-------0---
D|--0---0-|-----2---2---2---2---2---2---2---2-|-----0---0---0---0---0---0---0---0-|-----0---0---0---0-
A|--------|-0---------------------------------|-3---------------------------------|-2-----------------
E|--------|-----------------------------------|-----------------------------------|-------------------

Stave 20:

E|--------------------|-----------------|---------------------------------|-------------------|-
B|----1h------1-------|---------1-------|---------1---------------1h------|---1-------1-------|-
G|--------0-------0---|-----2-------2---|-----0-------0-------0-------0---|-------0-------0---|-
D|------0---0---0---0-|---2---2---2---2-|---2---2---2---2---2---2---2---2-|-----2---2---2---2-|-
A|--2-----------------|-0---------------|-3---------------3---------------|-3-----------------|-
E|--------------------|-----------------|---------------------------------|-------------------|-

Stave 21:

E|------------------------------------|-------------------------------------|-------------------
B|----1-------0-------0-------0-------|---0-------1---------0-------1-------|---0-------1-------
G|--------2-------2-------2-------2---|-------2-------2---------2-------2---|-------0-------0---
D|------2---2---2-------2---2---2---2-|-----2---2---2---2-----2---2---2---2-|-----2---2---2---2-
A|--2---------------0-----------------|-0-----------------0-----------------|-3-----------------
E|------------------------------------|-------------------------------------|-------------------

Stave 22:

E|--------------------|-----------------------------------|-
B|----0-------1-------|---1-------3-------1-------0-------|-
G|--------0-------0---|-------0-------0-------0-------0---|-
D|------2---2---2---2-|-----2---2---2---2---2---2---2---2-|-
A|--3-----------------|-2---------------------------------|-
E|--------------------|-----------------------------------|-

Stave 23:

E|------------------------------------|-----------------------------------|-----------------------------
B|----5-------3-------5-------1-------|---3-------1-------3-------0-------|---1-------0-------1-------3-
G|--------0-------0-------0-------0---|-------0-------0-------0-------0---|-------0-------0-------0-----
D|------0---0---0---0---0---0---0---0-|-----0---0---0---0---0---0---0---0-|-----0---0---0---0---0---0---
A|--3---------------------------------|-3---------------------------------|-0---------------------------
E|------------------------------------|-----------------------------------|-----------------------------

Stave 24:

E|--------|-------------------------------------------------------------------0-
B|--------|---1-------0-------3-------1-------1-------1-------1-------------1---
G|----0---|-------0-------0-------0-------0-------0-------0-------0-------0-----
D|--0---0-|-----2---2---0---0---0---0---0---0---0---0---0---0---0---0---2-------
A|--------|-3---------------------------------------------------------3---------
E|--------|---------------------------------------------------------------------

Stave 25:

E|--
B|--
G|--
D|--
A|--
E|--

http://www.guitartabcreator.com
Guitar Tab Creator is intended to store guitar tab created through the tool. It currently does not support in-line text editing. Any text you place in here will be lost. If you need to comment on your tab, please use the "Tab Notes" section located below.