Godspeed by Frank Ocean- unfinished

01234567891011121314151617181920212223
E
B
G
D
A
E
B
0 1 2 3 4 5 6 7 8 9 10 11 12 13 14 15 16 17 18 19 20 21 22 23
(/) Slide Up  (\) Slide Down  (h) Hammer On  (p) Pull Off  (b) Bend (r) Release (v) Vibrato

Capo Fret 1

Stave 1:

E|--0--3--1--0--1--------------------0--3--1--0--1-----3--1--1------------------------0--3p1--1p0--0----------------------------------3--
B|--1-----3-----1--1--1-----1-----1--1-----3-----1--1-----------5\3--3p1--1--------1------------------3--1--1-----1--3/5--3--1-----------
G|--0-----3-----2--------------------0-----3-----2-------------------0----------2------------------------------2----------2-----2--2-----
D|--2-----3-----3--------3-----3-----2-----3-----3----------------------------------------------------3--2-------------------------------
A|--3-----1-----3--------------------3-----1-----3---------------------------0--0-----3-----------------------------------0--------------
E|--------------1--------------------------------1-------------------3-------------------------------------------------------------------

Stave 2:

E|--1--1--0--0-----------3h5p3--0h1p0----------3h5p3--0h1p0----------3h5p3--0h1p0------------------3--0--0h1p0--------------1--0--0-----
B|--------------3--1--1------------------3\1--1----------------3\1--1----------------3\1--1-------1------------------------3--------------
G|-------------------------------------------------------------------------------------------0h2-----0------------3--3--3-----2-----------
D|----------------------------------------------------------------------------------------------------------------3-----------------------
A|-----------------3---------------------------------------------------------------------------------3------------1-----------------------
E|-----------3----------------------------------------------------------------------------------------------------------------1-----------

Stave 3:

E|-------------------3--1--1--0--0----------------------0-----3p1--1p0--0-------------------------------2--------------
B|--1--5\3--1--1--1-----------------3p1--1--1--------1-----1---------------3--1--1-----1--3/5--3--1--------------------
G|----------2-----------------------0-------------2---------------------0-----------2----------2-----2-----------------
D|-------------------------------------------------------------------------3--2----------------------------------------
A|----------0----------------------------3-----0--0-----3--------------------------------------0-----------------------
E|----------------------------------3-----------------------------------3----------------------------------------------

							http://www.guitartabcreator.com
Chords

Instruments
{"strings":[[[0,3,1,0,1,".",".",".",".",".",".",0,3,1,0,1,".",3,1,1,".",".",".",".",".",".",".",".",".",".",0,3,"p",1,1,"p",0,0,".",".",".",".",".",".",".",".",".",".",".",".",3],[1,".",3,".",1,1,1,".",1,".",1,1,".",3,".",1,1,".",".",".",5,"\\",3,3,"p",1,1,".",".",1,".",".",".",".",".",".",".",".",3,1,1,".",1,3,"/",5,3,1,".",".","."],[0,".",3,".",2,".",".",".",".",".",".",0,".",3,".",2,".",".",".",".",".",".",".",0,".",".",".",".",2,".",".",".",".",".",".",".",".",".",".",".",".",2,".",".",".",".",2,".",2,2,"."],[2,".",3,".",3,".",".",3,".",3,".",2,".",3,".",3,".",".",".",".",".",".",".",".",".",".",".",".",".",".",".",".",".",".",".",".",".",".",3,2,".",".",".",".",".",".",".",".",".",".","."],[3,".",1,".",3,".",".",".",".",".",".",3,".",1,".",3,".",".",".",".",".",".",".",".",".",".",".",0,0,".",3,".",".",".",".",".",".",".",".",".",".",".",".",".",".",".",0,".",".",".","."],[".",".",".",".",1,".",".",".",".",".",".",".",".",".",".",1,".",".",".",".",".",".",".",3,".",".",".",".",".",".",".",".",".",".",".",".",".",".",".",".",".",".",".",".",".",".",".",".",".",".","."]],[[1,1,0,0,".","_",".",3,"h",5,"p",3,0,"h",1,"p",0,".",".",".",".",3,"h",5,"p",3,0,"h",1,"p",0,".",".",".",".",3,"h",5,"p",3,0,"h",1,"p",0,".",".",".",".",".",".",".",".",3,0,0,"h",1,"p",0,".",".",".",".",1,0,0,"_"],[".",".",".",".",3,1,1,".",".",".",".",".",".",".","_",".",".",3,"\\",1,1,".",".",".",".",".",".",".",".",".",".",3,"\\",1,1,".",".",".",".",".",".",".",".",".",".",3,"\\",1,1,".",".",".",1,".",".",".",".",".",".",".",".",".",".",3,"_","_","_","_"],[".",".",".",".",".","_",".",".",".",".",".",".",".",".","_",".",".",".",".",".",".",".",".",".",".",".",".",".",".",".",".",".",".",".",".",".",".",".",".",".",".",".",".",".",".",".",".",".",".",0,"h",2,".",0,".",".",".",".",".",".",3,3,3,".",2,"_","_","_"],[".",".",".",".",".","_",".",".",".",".",".",".",".",".","_",".",".",".",".",".",".",".",".",".",".",".",".",".",".",".",".",".",".",".",".",".",".",".",".",".",".",".",".",".",".",".",".",".",".",".",".",".",".",".",".",".",".",".",".",".",3,".",".",".","_","_","_","_"],[".",".",".",".",".",3,".",".",".",".",".",".",".",".","_",".",".",".",".",".",".",".",".",".",".",".",".",".",".",".",".",".",".",".",".",".",".",".",".",".",".",".",".",".",".",".",".",".",".",".",".",".",".",3,".",".",".",".",".",".",1,".",".",".","_","_","_","_"],[".",".",".",3,".","_",".",".",".",".",".",".",".",".","_",".",".",".",".",".",".",".",".",".",".",".",".",".",".",".",".",".",".",".",".",".",".",".",".",".",".",".",".",".",".",".",".",".",".",".",".",".",".",".",".",".",".",".",".",".",".",".",".",".",1,"_","_","_"]],[[".",".",".",".",".",".",".",3,1,1,0,0,".",".",".",".",".",".",".",".",0,".",3,"p",1,1,"p",0,0,".",".",null,null,null,null,null,null,null,null,null,null,".",".",".",".",".",".",".",".",".",2,"_","_","_","_"],[1,5,"\\",3,1,1,1,".",".",".",".",".",3,"p",1,1,1,".",".",1,".",1,".",".",".",".",".",".",".",3,1,null,null,null,null,null,null,null,null,null,null,1,".",1,3,"/",5,3,1,".",".","_","_","_","_"],[".",".",".",".",2,".",".",".",".",".",".",".",0,".",".",".",".",".",2,".",".",".",".",".",".",".",".",".",0,".",".",null,null,null,null,null,null,null,null,null,null,".",2,".",".",".",".",2,".",2,".","_","_","_","_"],[".",".",".",".",".",".",".",".",".",".",".",".",".",".",".",".",".",".",".",".",".",".",".",".",".",".",".",".",".",3,2,null,null,null,null,null,null,null,null,null,null,".",".",".",".",".",".",".",".",".",".","_","_","_","_"],[".",".",".",".",0,".",".",".",".",".",".",".",".",".",".",3,".",0,0,".",3,".",".",".",".",".",".",".",".",".",".",null,null,null,null,null,null,null,null,null,null,".",".",".",".",".",".",0,".",".",".","_","_","_","_"],[".",".",".",".",".",".",".",".",".",".",".",".",3,".",".",".",".",".",".",".",".",".",".",".",".",".",".",".",3,".",".",null,null,null,null,null,null,null,null,null,null,".",".",".",".",".",".",".",".",".",".","_","_","_","_"]]],"numberofstrings":6,"notes":["E","B","G","D","A","E","B"],"capo":"1","stringnotes":["E4","B3","G3","D3","A2","E2"],"comments":["Stave 1:","Stave 2:","Stave 3:"],"timing":[[null,null,null,null,null,null,null,null,null,null,"W","W","W","W","W","W","W","W","W","W","W","W","W","W","W","W","W","W","W","W","W","W",null,"W",null,"W","W","W","W","W","W","W","W","W",null,"W","W","W","W","W","W","W","W","W","W"],["W","W","W","W","W","W","W","W","W",null,"W",null,"W","W",null,"W","W","W","W","W","W","W","W","W","W","W","W","W",null,"W",null,"W","W",null,"W","W","W",null,"W",null,"W","W",null,"W",null,"W","W",null,"W","W","W","W",null,"W","W","W","W","W",null,"W",null,"W","W","W","W","W","W","W","W","W",null,"W",null,"W",null,null,"W"],["W","W",null,"W","W","W","W","W","W","W","W","W","W",null,"W","W",null,null,null,null,null,null,null,null,null,"W","W","W","W","W","W",null,"W",null,"W","W","W","W","W","W",null,"W","W","W","W","W","W","W","W","W","W",null,"W","W","W"]],"timingvisible":false,"tabcounter":55,"stave":2,"totalstaves":3,"instrument":"6guitar","selectedtuning":"6_standard","version":"13"}

Member for

1 month 2 weeks
Submitted by Anya on Thu, 2020-12-03 18:55