Sound will begin in 5 seconds

My Song

Chords
01234567891011121314151617181920212223
E
B
G
D
A
E
B
0 1 2 3 4 5 6 7 8 9 10 11 12 13 14 15 16 17 18 19 20 21 22 23
Song Science #1: How Pros Use 6 Chords to Write Hit Songs
(/) Slide Up  (\) Slide Down  (h) Hammer On  (p) Pull Off  (b) Bend (r) Release (v) Vibrato

Stave 1:

E|--5--5-------------------5--5-------------------
B|--6--6-------------------6--6-------------------
G|--7--7-------------------7--7-------------------
D|--7--7-------------------7--7-------------------
A|--5--5-----------5h8--5--5--5-----------5h8--5--
E|--------5--5--8----------------5--5--8----------

Stave 2:

E|--------------10--10--10--10--10--11--11--11--11--11--9---9---9---9---9---10--10--10--10--10--
B|--------------11--11--11--11--11--11--11--11--11--11--10--10--10--10--10--10--10--10--10--10--
G|----------10--12--12--12--12--12--11--11--11--11--11--9---9---9---9---9---10--10--10--10--10--
D|--10--12--------------------------------------------------------------------------------------
A|----------------------------------------------------------------------------------------------
E|----------------------------------------------------------------------------------------------

Stave 3:

E|--3--3-----3--3--3--3-----------------------------------
B|--3--3--3--3--3--3--3--2--2--2--2--2--2--2--1--1--1--1--
G|--3--3--3--3--3--3--3--1--1--1--1--1--1--1--1--1--1--1--
D|--4--4--4--4--4--4--4--2--2--2--2--2--2--2--1--1--1--1--
A|--4--4--4--4--4--4--4-----------------------------------
E|--3--3--3--3--3--3--3-----------------------------------

http://www.guitartabcreator.com
Guitar Tab Creator is intended to store guitar tab created through the tool. It currently does not support in-line text editing. Any text you place in here will be lost. If you need to comment on your tab, please use the "Tab Notes" section located below.