Oh ven! Oh ven! Emmanuel

Chords

01234567891011121314151617181920212223
E
B
G
D
A
E
B
0 1 2 3 4 5 6 7 8 9 10 11 12 13 14 15 16 17 18 19 20 21 22 23
(/) Slide Up  (\) Slide Down  (h) Hammer On  (p) Pull Off  (b) Bend (r) Release (v) Vibrato

Stave 1:

E|----------------------------------
B|----------------------------------
G|-----0--4--4--4--2--4/5--4--2--0--
D|--2-------------------------------
A|----------------------------------
E|----------------------------------

Stave 2:

E|--------------------------------
B|--------------------------------
G|--2--4--0-----0--2--0-----------
D|-----------2-----------2--0--2--
A|--------------------------------
E|--------------------------------

							http://www.guitartabcreator.com
Tab Notes

Queda pendiente

verso antes del coro y el coro.

 

 

Creada por Antonio Alejos

Instruments
{"title":"Oh ven! Oh ven! Emmanuel","strings":[[[".",".",".",".",".",".",".",".",".",".",".","."],[".",".",".",".",".",".",".",".",".",".",".","."],[".",0,4,4,4,2,4,"/",5,4,2,0],[2,".",".",".",".",".",".",".",".",".",".","."],[".",".",".",".",".",".",".",".",".",".",".","."],[".",".",".",".",".",".",".",".",".",".",".","."]],[[".",".",".",".",".",".",".",".",".","."],[".",".",".",".",".",".",".",".",".","."],[2,4,0,".",0,2,0,".",".","."],[".",".",".",2,".",".",".",2,0,2],[".",".",".",".",".",".",".",".",".","."],[".",".",".",".",".",".",".",".",".","."]]],"numberofstrings":6,"notes":["E","B","G","D","A","E","B"],"capo":0,"stringnotes":["E4","B3","G3","D3","A2","E2"],"comments":["Stave 1:","Stave 2:"],"timing":[["W","W","W","W","W","W","W",null,"W","W","W","W"],["W","W","W","W","W","W","W","W","W","W"]],"timingvisible":false,"tabcounter":10,"stave":1,"totalstaves":2,"instrument":"6guitar","selectedtuning":"6_standard","version":"13"}

Member for

1 year 9 months
Submitted by AntonioAlejos96 on Thu, 2018-08-30 21:18