Sound will begin in 5 seconds

Changing Yesterday - Denial

01234567891011121314151617181920212223
E
B
G
D
A
E
B
0 1 2 3 4 5 6 7 8 9 10 11 12 13 14 15 16 17 18 19 20 21 22 23
Song Science #1: How Pros Use 6 Chords to Write Hit Songs
(/) Slide Up  (\) Slide Down  (h) Hammer On  (p) Pull Off  (b) Bend (r) Release (v) Vibrato

Stave 1:

G|------------------------------
D|------------------------------
A|------------------------------
E|--0--0--0--0--0--0--0--0--12--

Stave 2:

G|-----------------------------------------
D|-----------------------------------------
A|-----------------------------------------
E|--12\0--0--2--3--2--0--0--2--3--2--0--5--

Stave 3:

G|-------------------------
D|-------------------------
A|-------------------------
E|--0--2--3--8--5--3--3h5--

Stave 4:

G|---------------------------------------------------------------------------
D|-----------3p0-----------5p0--3p0--2--3-----7p0--5p0--3--5-----------------
A|-----3--5-------3--5-------------------------------------------------------
E|--0-------------------2------------------3------------------5--12\0--12\0--

Stave 5:

G|------------------------------------------------
D|------------------------------------------------
A|-------------------------3p0-----------------5--
E|--3p0--3p0--3p0--3p0--5-------3p0--3p0--3p0-----

Stave 6:

G|--------------------------------------------------------
D|--------------------------------------------------------
A|--------------------------------------------------------
E|--0--0--0--2--2--2--3--3--3--5--5--5--3--3--3--5--5--5--

Stave 7:

G|-----------------------------------------------------------------------------------------
D|-----------------------------------------------------------------------------------------
A|-----------------------------------------------------------------------------------------
E|--0--0--0--0--0--0--0--0--0--3--3--6--6--5--0--0--0--0--0--0--0--0--0--3--3--6--6--5--2--

http://www.guitartabcreator.com
Guitar Tab Creator is intended to store guitar tab created through the tool. It currently does not support in-line text editing. Any text you place in here will be lost. If you need to comment on your tab, please use the "Tab Notes" section located below.