Sound will begin in 5 seconds

Changing Yesterday - Alive

01234567891011121314151617181920212223
E
B
G
D
A
E
B
0 1 2 3 4 5 6 7 8 9 10 11 12 13 14 15 16 17 18 19 20 21 22 23
Song Science #1: How Pros Use 6 Chords to Write Hit Songs
(/) Slide Up  (\) Slide Down  (h) Hammer On  (p) Pull Off  (b) Bend (r) Release (v) Vibrato

Stave 1:

G|-----------------------------
D|-----------------------------
A|-----------------------------
D|--5--5--8--7--5--5--3--7--5--

Stave 2:

G|--------------------------
D|--------------------------
A|-----5--8--7--3-----5-----
D|--5--------------5-----3--

Stave 3:

G|-----------------------------------------------------------------------------
D|-----------------------------3--5--3-----------------------------------------
A|-----------------------3--5-----------5--3-----------------------------------
D|--5--3--5--3--5--3--5-----------------------5--3--5--3--5--3--0--3--3--1--1--

Stave 4:

G|----------------------------
D|----------------------------
A|----------------------------
D|--5--5--8--8--3--3--10--10--

Stave 5:

G|---------------------------------------------------------------------
D|--------------------10-----8-------------5-------------------12--10--
A|------------------------------8/3-----3-----3--3\10------10----------
D|--5--5--7--7--8--8------8----------3-----------------10--------------

Stave 6:

G|--------------------------------------------------------------
D|--------------------------------------------------------------
A|--------------------------------------3-----------------------
D|--12\0--------------5--3--5--3--6--5-----5--3--5--3--6--3--0--

http://www.guitartabcreator.com
Guitar Tab Creator is intended to store guitar tab created through the tool. It currently does not support in-line text editing. Any text you place in here will be lost. If you need to comment on your tab, please use the "Tab Notes" section located below.