test 1

Chords
01234567891011121314151617181920212223
E
B
G
D
A
E
B
0 1 2 3 4 5 6 7 8 9 10 11 12 13 14 15 16 17 18 19 20 21 22 23
(/) Slide Up  (\) Slide Down  (h) Hammer On  (p) Pull Off  (b) Bend (r) Release (v) Vibrato

2

E|-----------------------------------------------
B|-----------------------------------------------
G|-----------------------------------------------
D|--3-----0--3--2--------------------5--3-----2--
A|-----0-----------3--0--5--3--5--3--------------
E|-----------------------------------------------

1

E|--------------------------------------------
B|--------------------------------------------
G|--------------------------------------------
D|--3-----0--3--2--------------------5--3--2--
A|-----0-----------3--0--5--3--5--3-----------
E|--------------------------------------------

Stave 3:

E|--
B|--
G|--
D|--
A|--
E|--

							http://www.guitartabcreator.com
Instruments
{"title":"","strings":[[[".",".",".",".",".",".",".",".",".",".",".",".",".","_","."],[".",".",".",".",".",".",".",".",".",".",".",".",".","_","."],[".",".",".",".",".",".",".",".",".",".",".",".",".","_","."],[3,".",0,3,2,".",".",".",".",".",".",5,3,"_",2],[".",0,".",".",".",3,0,5,3,5,3,".",".","_","."],[".",".",".",".",".",".",".",".",".",".",".",".",".","_","."]],[[".",".",".",".",".",".",".",".",".",".",".",".",".","."],[".",".",".",".",".",".",".",".",".",".",".",".",".","."],[".",".",".",".",".",".",".",".",".",".",".",".",".","."],[3,".",0,3,2,".",".",".",".",".",".",5,3,2],[".",0,".",".",".",3,0,5,3,5,3,".",".","."],[".",".",".",".",".",".",".",".",".",".",".",".",".","."]],[[],[],[],[],[],[]]],"numberofstrings":6,"notes":["E","B","G","D","A","E","B"],"capo":0,"stringnotes":["E4","B3","G3","D3","A2","E2"],"comments":["2","1","Stave 3:"],"timing":[["W","W","W","W","W","W","W","W","W","W","W","W","W","W","W"],["W","W","W","W","W","W","W","W","W","W","W","W","W","W"],[]],"timingvisible":false,"tabcounter":0,"stave":2,"totalstaves":3,"instrument":"6guitar","selectedtuning":"6_standard","version":"13"}

Member for

8 months 2 weeks
Submitted by anonymous3572 on Fri, 2019-09-13 02:50