hey jude

01234567891011121314151617181920212223
E
B
G
D
A
E
B
0 1 2 3 4 5 6 7 8 9 10 11 12 13 14 15 16 17 18 19 20 21 22 23
(/) Slide Up  (\) Slide Down  (h) Hammer On  (p) Pull Off  (b) Bend (r) Release (v) Vibrato

Stave 1:

E|-----------------------------0--0--------------------------------2--0-----0--------------------------------------
B|--0--------0--2--------------------4--0--2--0--------0--2--2--2--------4-----2--0-----------2--0--0--------------
G|-----1--1--------------1--2--------------------2--1--------------------------------------1-----------2--1--------
D|-----------------4--4--------------------------------------------------------------2--4--------------------1--2--
A|-----------------------------------------------------------------------------------------------------------------
E|-----------------------------------------------------------------------------------------------------------------

Stave 2:

E|-----0-----------------------0-----0-----0-----------------------------------------------------0--1--2--2--
B|--------2--2--0--0-----2--2-----2-----------2--0-----0--2--0-----------------------0--2--3--3--------------
G|--------------------2-----------------2-----------2-----------2--1-----------------------------------------
D|--2-----------------------------------------------------------------4--2--------2--------------------------
A|-----------------------------------------------------------------------------------------------------------
E|-----------------------------------------------------------------------------------------------------------

Stave 3:

E|--------------------------2--3--6--7--12--------------2--0--2--0--2--0--2--0-----------
B|--------------------4--5---------------------------0--------------------------3--2--0--
G|--------0--1--3--4------------------------------1--------------------------------------
D|--1--2---------------------------------------2-----------------------------------------
A|---------------------------------------------------------------------------------------
E|---------------------------------------------------------------------------------------

							http://www.guitartabcreator.com
Chords

Instruments
{"strings":[[[".",".",".",".",".",".",".",".",".",0,0,".",".",".",".",".",".",".",".",".",".",2,0,".",0,".",".",".",".",".",".",".",".",".",".",".","."],[0,".",".",0,2,".",".",".",".",".",".",4,0,2,0,".",".",0,2,2,2,".",".",4,".",2,0,".",".",".",2,0,0,".",".",".","."],[".",1,1,".",".",".",".",1,2,".",".",".",".",".",".",2,1,".",".",".",".",".",".",".",".",".",".",".",".",1,".",".",".",2,1,".","."],[".",".",".",".",".",4,4,".",".",".",".",".",".",".",".",".",".",".",".",".",".",".",".",".",".",".",".",2,4,".",".",".",".",".",".",1,2],[".",".",".",".",".",".",".",".",".",".",".",".",".",".",".",".",".",".",".",".",".",".",".",".",".",".",".",".",".",".",".",".",".",".",".",".","."],[".",".",".",".",".",".",".",".",".",".",".",".",".",".",".",".",".",".",".",".",".",".",".",".",".",".",".",".",".",".",".",".",".",".",".",".","."]],[[".",0,".",".",".",".",".",".",".",0,".",0,".",0,".",".",".",".",".",".",".",".",".",".","_","_",".",".",".",".",".",0,1,2,2],[".",".",2,2,0,0,".",2,2,".",2,".",".",".",2,0,".",0,2,0,".",".",".",".","_","_",".",0,2,3,3,".",".",".","."],[".",".",".",".",".",".",2,".",".",".",".",".",2,".",".",".",2,".",".",".",2,1,".",".","_","_",".",".",".",".",".",".",".",".","."],[2,".",".",".",".",".",".",".",".",".",".",".",".",".",".",".",".",".",".",".",".",".",4,2,"_","_",2,".",".",".",".",".",".",".","."],[".",".",".",".",".",".",".",".",".",".",".",".",".",".",".",".",".",".",".",".",".",".",".",".","_","_",".",".",".",".",".",".",".",".","."],[".",".",".",".",".",".",".",".",".",".",".",".",".",".",".",".",".",".",".",".",".",".",".",".","_","_",".",".",".",".",".",".",".",".","."]],[[".",".",".",".",".",".",".",".",2,3,6,7,12,"_",".",".",".",2,0,2,0,2,0,2,0,".",".","."],[".",".",".",".",".",".",4,5,".",".",".",".",".","_",".",".",0,".",".",".",".",".",".",".",".",3,2,0],[".",".",0,1,3,4,".",".",".",".",".",".",".","_",".",1,".",".",".",".",".",".",".",".",".",".",".","."],[1,2,".",".",".",".",".",".",".",".",".",".",".","_",2,".",".",".",".",".",".",".",".",".",".",".",".","."],[".",".",".",".",".",".",".",".",".",".",".",".",".","_",".",".",".",".",".",".",".",".",".",".",".",".",".","."],[".",".",".",".",".",".",".",".",".",".",".",".",".","_",".",".",".",".",".",".",".",".",".",".",".",".",".","."]]],"numberofstrings":6,"notes":["E","B","G","D","A","E","B"],"capo":0,"stringnotes":["E4","B3","G3","D3","A2","E2"],"comments":["Stave 1:","Stave 2:","Stave 3:"],"timing":[["W","W","W","W","W","W","W","W","W","W","W","W","W","W","W","W","W","W","W","W","W","W","W","W","W","W","W","W","W","W","W","W","W","W","W","W","W"],["W","W","W","W","W","W","W","W","W","W","W","W","W","W","W","W","W","W","W","W","W","W","W","W","W","W","W","W","W","W","W","W","W","W","W"],["W","W","W","W","W","W","W","W","W","W","W","W","W","W","W","W","W","W","W","W","W","W","W","W","W","W","W","W"]],"timingvisible":false,"tabcounter":28,"stave":2,"totalstaves":3,"instrument":"6guitar","selectedtuning":"6_standard","version":"13"}

Member for

2 weeks
Submitted by Anna18 on Sun, 2021-11-14 08:46