For good - from Wicked - not ready yet

Chords

01234567891011121314151617181920212223
E
B
G
D
A
E
B
0 1 2 3 4 5 6 7 8 9 10 11 12 13 14 15 16 17 18 19 20 21 22 23
(/) Slide Up  (\) Slide Down  (h) Hammer On  (p) Pull Off  (b) Bend (r) Release (v) Vibrato

Capo Fret 1

Stave 1:

E|-----3-----0-----------0--3-----------------0--
B|--1-----1--------0--3--1-----1-----------1-----
G|--------------2--------------2--2--2--0--0-----
D|-----------------------------------------------
A|-----------------------3-----------------3-----
E|-----------------------------1-----------------

Stave 2:

E|--0-----0--0--3--3-----------------------3-----0--3--------
B|-----------------1-----------1--1--1--3--3--3--------1-----
G|-----0--------------2--2--0--0-----2-----------------2--2--
D|-----------------------------------------------------------
A|-----------------------------3-----------------------------
E|-----------------1-----------------1-----3-----------1-----

Stave 3:

E|--------0-----0--0-----0--0-----------0--------------
B|--------------------------2--3-----1-----3--3--1--3--
G|--2--2--0--0--------0-----------2-----2--------0-----
D|--------------------------------------0--------------
A|--------------------------0--------------------------
E|--------0--------------------------------------3-----

Stave 4:

E|-----
B|--0--
G|--0--
D|-----
A|-----
E|--3--

							http://www.guitartabcreator.com
Instruments
{"strings":[[[".",3,".",0,".",".",".",0,3,".",".",".",".",".",0],[1,".",1,".",".",0,3,1,".",1,".",".",".",1,"."],[".",".",".",".",2,".",".",".",".",2,2,2,0,0,"."],[".",".",".",".",".",".",".",".",".",".",".",".",".",".","."],[".",".",".",".",".",".",".",3,".",".",".",".",".",3,"."],[".",".",".",".",".",".",".",".",".",1,".",".",".",".","."]],[[0,".",0,0,3,3,".",".",".",".",".",".",".",3,".",0,3,".","."],[".",".",".",".",".",1,".",".",".",1,1,1,3,3,3,".",".",1,"."],[".",0,".",".",".",".",2,2,0,0,".",2,".",".",".",".",".",2,2],[".",".",".",".",".",".",".",".",".",".",".",".",".",".",".",".",".",".","."],[".",".",".",".",".",".",".",".",".",3,".",".",".",".",".",".",".",".","."],[".",".",".",".",".",1,".",".",".",".",".",1,".",3,".",".",".",1,"."]],[[".",".",0,".",0,0,".",0,0,".",".",".",0,".",".",".","."],[".",".",".",".",".",".",".",".",2,3,".",1,".",3,3,1,3],[2,2,0,0,".",".",0,".",".",".",2,".",2,".",".",0,"."],[".",".",".",".",".",".",".",".",".",".",".",".",0,".",".",".","."],[".",".",".",".",".",".",".",".",0,".",".",".",".",".",".",".","."],[".",".",0,".",".",".",".",".",".",".",".",".",".",".",".",3,"."]],[["."],[0],[0],["."],["."],[3]]],"numberofstrings":6,"notes":["E","B","G","D","A","E","B"],"capo":"1","stringnotes":["E4","B3","G3","D3","A2","E2"],"comments":["Stave 1:","Stave 2:","Stave 3:","Stave 4:"],"timing":[["W","W","W","W","W","W","W","W","W","W","W","W","W","W","W"],["W","W","W","W","W","W","W","W","W","W","W","W","W","W","W","W","W","W","W"],["W","W","W","W","W","W","W","W","W","W","W","W","W","W","W","W","W"],["W"]],"timingvisible":false,"tabcounter":0,"stave":3,"totalstaves":4,"instrument":"6guitar","selectedtuning":"6_standard","version":"13"}

Member for

1 month 1 week
Submitted by _anna on Sat, 2020-06-27 06:21