Sound will begin in 5 seconds

Eskimo

Chords
01234567891011121314151617181920212223
E
B
G
D
A
E
B
0 1 2 3 4 5 6 7 8 9 10 11 12 13 14 15 16 17 18 19 20 21 22 23
Song Science #1: How Pros Use 6 Chords to Write Hit Songs
(/) Slide Up  (\) Slide Down  (h) Hammer On  (p) Pull Off  (b) Bend (r) Release (v) Vibrato

Stave 1:

E|--------------------------------------------------
B|--------------------------------------------------
G|--------------------------------------------------
D|-----6h7--9--10--9--7h9------7--------6-----6-----
A|--7----------------------10-----7--7-----7-----7--
E|--------------------------------------------------

Stave 2:

E|--------------------------------------------------------
B|--------------------------------------------------------
G|--------------------------------------------------------
D|-----6h7--9--10--9--7h9------7--------6-----6-----6-----
A|--7----------------------10-----7--7-----7-----7-----7--
E|--------------------------------------------------------

Stave 3:

E|-------------------------------------------------
B|-------------------------------------------------
G|--------------9-------------------7--------7-----
D|--9--9h10h12-----12--10h12p10--9-----6--6-----6--
A|-------------------------------------------------
E|-------------------------------------------------

Stave 4:

E|----------------------------------------------------------
B|----------------------------------------------------------
G|--------------9-------------------13----------13----------
D|--9--9h10h12-----12--10h12p10--9------12--12------12--9v--
A|----------------------------------------------------------
E|----------------------------------------------------------

Stave 5:

E|--------------------------------------------------------------------------
B|----------------------------------10--12--10--9h10p9h10p9--------------v--
G|------------9b10------------9b10------------------------------------------
D|--7--10--7--------7--10--7------------------------------------------------
A|--------------------------------------------------------------------------
E|--------------------------------------------------------------------------

Stave 6:

E|----------------------------------------------------------------
B|----------------------------------------------------------------
G|----------------------------------------------------------------
D|-----7--9--10--9--7---------6--6-----6--------------------------
A|--7------------------10--7--------7--------------7--7--7--7--7--
E|----------------------------------------------------------------

Stave 7:

E|------12------10------8------7------12------10------8------7--
B|------13------12------10-----9------13------12------10-----9--
G|--14--14--12--12--10--10--9--9--14--14--12--12--10--10--9--9--
D|--------------------------------------------------------------
A|--------------------------------------------------------------
E|--------------------------------------------------------------

Stave 8:

E|--7--7--7--7--12--12--12--12--|--7--7--7--7--12--12--12--12--
B|--9--9--9--9--13--13--13--13--|--9--9--9--9--9---9---9---9---
G|--9--9--9--9--14--14--14--14--|--9--9--9--9--9---9---9---9---
D|------------------------------|------------------------------
A|------------------------------|------------------------------
E|------------------------------|------------------------------

Stave 9:

E|--------------
B|--------------
G|--------------
D|--7--6--9--7--
A|--7--5--9--7--
E|--5--4--7--5--

Stave 10:

E|------------------------------------------------------------------------------
B|------------------------------------------------------------------------------
G|------------------------------------------------------------------------------
D|-----7--9--10--9--7------7--------6--------7--9--10--9--7------7--------6-----
A|--7------------------10-----7--7-----7--7------------------10-----7--7-----7--
E|------------------------------------------------------------------------------

Stave 11:

E|-------------------------------------------------------------------------------------
B|-------------------------------------------------------------------------------------
G|-------------9--------------------------------------------9----------11--13--13--13--
D|--9--10--12-----12--10--9--10----------12------9--10--12-----12--10--10--12--12--12--
A|-------------------------------11--11------11----------------------------------------
E|-------------------------------------------------------------------------------------

Stave 12:

E|------8h10--12p10--8h10-----7h8--10p8--7h8-----5h7--8p7--5h7-----4h5--7p5--4h5--
B|--10---------------------8------------------6-----------------5-----------------
G|--------------------------------------------------------------------------------
D|--------------------------------------------------------------------------------
A|--------------------------------------------------------------------------------
E|--------------------------------------------------------------------------------

Stave 13:

E|--12---------------------------------------------------------------------------
B|------12--13--15--13h15p13--12h13p12--10h12p10--10--10--9--10--12--9h10p9------
G|---------------------------------------------------------------------------9v--
D|-------------------------------------------------------------------------------
A|-------------------------------------------------------------------------------
E|-------------------------------------------------------------------------------

Stave 14:

E|----------------------12--16p12--12--16--12--16--12--16--12--16--12--16--12--16--12--
B|-----9--10--12h13p12-----------------------------------------------------------------
G|--9----------------------------------------------------------------------------------
D|-------------------------------------------------------------------------------------
A|-------------------------------------------------------------------------------------
E|-------------------------------------------------------------------------------------

Stave 15:

E|--12--16--17--19--20--20--19--17--17--16--17--16--12v--
B|-------------------------------------------------------
G|-------------------------------------------------------
D|-------------------------------------------------------
A|-------------------------------------------------------
E|-------------------------------------------------------

Stave 16:

E|------------------------------------------10--12b12b12b12b12v--/17b17b17b17b17b17v--
B|----------------------------------10--13--------------------------------------------
G|------------9b10------------9b10----------------------------------------------------
D|--7--10--7--------7--10--7----------------------------------------------------------
A|------------------------------------------------------------------------------------
E|------------------------------------------------------------------------------------

Stave 17:

E|---------------------------------------------------------------------------------------------------
B|---------------------------------------------------------------------------------------------------
G|---------------------------------------------------------------------------------------------------
D|---------------------------------------------------------------------------------------------------
A|--------------------------------------------5-----5-----------7--5--7--7--7--7---------------------
E|--5--8--8--8--8--8--8--5--4--5--8--8--8--8-----8-----5--4--0--------------------5--5h7p5--5--4--0--

Stave 18:

E|-----------10--12v--17v--12v--17v--
B|--10v--13--------------------------
G|-----------------------------------
D|-----------------------------------
A|-----------------------------------
E|-----------------------------------

http://www.guitartabcreator.com
Guitar Tab Creator is intended to store guitar tab created through the tool. It currently does not support in-line text editing. Any text you place in here will be lost. If you need to comment on your tab, please use the "Tab Notes" section located below.