Sound will begin in 5 seconds

Rondo Alla Turca (adapted)

01234567891011121314151617181920212223
E
B
G
D
A
E
B
0 1 2 3 4 5 6 7 8 9 10 11 12 13 14 15 16 17 18 19 20 21 22 23
(/) Slide Up  (\) Slide Down  (h) Hammer On  (p) Pull Off  (b) Bend (r) Release (v) Vibrato

Stave 1:

E|--------------------------------------------------------------------------------------
B|----------------------------------------------------12--10--9--10--12--10--9--10--13--
G|------------------------------------9--10--9--8--9------------------------------------
D|--9--------------10--12--10--9--10----------------------------------------------------
A|-----12--11--12-----------------------------------------------------------------------
E|--------------------------------------------------------------------------------------

Stave 2:

E|------8-----------------------------------------------------
B|--10-----12--10------10--12--10------10--12--10-------------
G|-----------------12--------------12--------------12--11--9--
D|------------------------------------------------------------
A|------------------------------------------------------------
E|------------------------------------------------------------

Stave 3:

E|--------------------------------------------------------------------
B|-----------------10--8----------------------------10--8-------------
G|--9--10--12--12---------10--9------9--10--12--12---------10--9------
D|-------------------------------12-------------------------------12--
A|--------------------------------------------------------------------
E|--------------------------------------------------------------------

Stave 4:

E|---------------------------------------------------------------------------------
B|---------------------------------------------------------------------------------
G|----------9--9--10--9---------------------9--9--10--9-------------0--0--0--1--6--
D|--10--12---------------12--10--9--10--12---------------12--10--9-----------------
A|---------------------------------------------------------------------------------
E|---------------------------------------------------------------------------------

http://www.guitartabcreator.com
Guitar Tab Creator is intended to store guitar tab created through the tool. It currently does not support in-line text editing. Any text you place in here will be lost. If you need to comment on your tab, please use the "Tab Notes" section located below.