Stupid Smile Lead Guitar

01234567891011121314151617181920212223
E
B
G
D
A
E
B
0 1 2 3 4 5 6 7 8 9 10 11 12 13 14 15 16 17 18 19 20 21 22 23
(/) Slide Up  (\) Slide Down  (h) Hammer On  (p) Pull Off  (b) Bend (r) Release (v) Vibrato

Stave 1:

D|--------------
A|--3--3--3--2--
F|--------------
C|--------------
G|--------------
D|--------------

Stave 2:

D|--------|--------|--------|--------------|--------|--------|--------|-----
A|--3--2--|--5-----|--3--2--|-----5--7--5--|--3--2--|-----5--|--3--2--|-----
F|--------|-----2--|--------|--2-----------|--------|--2-----|--------|--2--
C|--------|--------|--------|--------------|--------|--------|--------|-----
G|--------|--------|--------|--------------|--------|--------|--------|-----
D|--------|--------|--------|--------------|--------|--------|--------|-----

Stave 3:

D|--5-----|-----------|-----------|--5-----|-----------|--------------|--5-----|-----------|--------------|-----------
A|-----5--|--7--3--2--|--2--3--2--|-----5--|--7--3--2--|--2--------2--|-----5--|--7--3--2--|--2--2--2--3--|--2--------
F|--------|-----------|-----------|--------|-----------|-----2--4-----|--------|-----------|--------------|-----5--2--
C|--------|-----------|-----------|--------|-----------|--------------|--------|-----------|--------------|-----------
G|--------|-----------|-----------|--------|-----------|--------------|--------|-----------|--------------|-----------
D|--------|-----------|-----------|--------|-----------|--------------|--------|-----------|--------------|-----------

Stave 4:

D|--------|--------|--------|---------
A|--------|--------|--5--7--|--9--10--
F|--2--4--|--6--9--|--------|---------
C|--------|--------|--------|---------
G|--------|--------|--------|---------
D|--------|--------|--------|---------

Stave 5:

D|--5--|--5--|-----|-----|-----|-----|-----|-----
A|-----|-----|--5--|--5--|--7--|--7--|--8--|--8--
F|-----|-----|-----|-----|-----|-----|-----|-----
C|-----|-----|-----|-----|-----|-----|-----|-----
G|-----|-----|-----|-----|-----|-----|-----|-----
D|-----|-----|-----|-----|-----|-----|-----|-----

Stave 6:

D|--------|--------
A|--5-----|--------
F|-----4--|--6--2--
C|--------|--------
G|--------|--------
D|--------|--------

							http://www.guitartabcreator.com
Chords

Instruments
{"strings":[[[".",".",".","."],[3,3,3,2],[".",".",".","."],[".",".",".","."],[".",".",".","."],[".",".",".","."]],[[".",".","|",".",".","|",".",".","|",".",".",".",".","|",".",".","|",".",".","|",".",".","|","."],[3,2,"|",5,".","|",3,2,"|",".",5,7,5,"|",3,2,"|",".",5,"|",3,2,"|","."],[".",".","|",".",2,"|",".",".","|",2,".",".",".","|",".",".","|",2,".","|",".",".","|",2],[".",".","|",".",".","|",".",".","|",".",".",".",".","|",".",".","|",".",".","|",".",".","|","."],[".",".","|",".",".","|",".",".","|",".",".",".",".","|",".",".","|",".",".","|",".",".","|","."],[".",".","|",".",".","|",".",".","|",".",".",".",".","|",".",".","|",".",".","|",".",".","|","."]],[[5,".","|",".",".",".","|",".",".",".","|",5,".","|",".",".",".","|",".",".",".",".","|",5,".","|",".",".",".","|",".",".",".",".","|",".",".","."],[".",5,"|",7,3,2,"|",2,3,2,"|",".",5,"|",7,3,2,"|",2,".",".",2,"|",".",5,"|",7,3,2,"|",2,2,2,3,"|",2,".","."],[".",".","|",".",".",".","|",".",".",".","|",".",".","|",".",".",".","|",".",2,4,".","|",".",".","|",".",".",".","|",".",".",".",".","|",".",5,2],[".",".","|",".",".",".","|",".",".",".","|",".",".","|",".",".",".","|",".",".",".",".","|",".",".","|",".",".",".","|",".",".",".",".","|",".",".","."],[".",".","|",".",".",".","|",".",".",".","|",".",".","|",".",".",".","|",".",".",".",".","|",".",".","|",".",".",".","|",".",".",".",".","|",".",".","."],[".",".","|",".",".",".","|",".",".",".","|",".",".","|",".",".",".","|",".",".",".",".","|",".",".","|",".",".",".","|",".",".",".",".","|",".",".","."]],[[".",".","|",".",".","|",".",".","|",".","."],[".",".","|",".",".","|",5,7,"|",9,10],[2,4,"|",6,9,"|",".",".","|",".","."],[".",".","|",".",".","|",".",".","|",".","."],[".",".","|",".",".","|",".",".","|",".","."],[".",".","|",".",".","|",".",".","|",".","."]],[[5,"|",5,"|",".","|",".","|",".","|",".","|",".","|","."],[".","|",".","|",5,"|",5,"|",7,"|",7,"|",8,"|",8],[".","|",".","|",".","|",".","|",".","|",".","|",".","|","."],[".","|",".","|",".","|",".","|",".","|",".","|",".","|","."],[".","|",".","|",".","|",".","|",".","|",".","|",".","|","."],[".","|",".","|",".","|",".","|",".","|",".","|",".","|","."]],[[".",".","|",".","."],[5,".","|",".","."],[".",4,"|",6,2],[".",".","|",".","."],[".",".","|",".","."],[".",".","|",".","."]]],"numberofstrings":6,"notes":["D","A","F","C","G","D"],"capo":0,"stringnotes":["D3","A2","F2","C2","G1","D1"],"comments":["Stave 1:","Stave 2:","Stave 3:","Stave 4:","Stave 5:","Stave 6:"],"timing":[["W","W","W","W"],["W","W",null,"W","W",null,"W","W",null,"W","W","W","W",null,"W","W",null,"W","W",null,"W","W",null,"W"],["W","W",null,"W","W","W",null,"W","W","W",null,"W","W",null,"W","W","W",null,"W","W","W","W",null,"W","W",null,"W","W","W",null,"W","W","W","W",null,"W","W","W"],["W","W",null,"W","W",null,"W","W",null,"W","W"],["W",null,"W",null,"W",null,"W",null,"W",null,"W",null,"W",null,"W"],["W","W",null,"W","W"]],"timingvisible":false,"tabcounter":5,"stave":5,"totalstaves":6,"instrument":"6guitar","selectedtuning":"Full Step Down","version":"13"}

Member for

3 years 8 months
Submitted by andyschumann on Tue, 2021-09-21 20:03