everything is gonna be fine lead tab!

01234567891011121314151617181920212223
E
B
G
D
A
E
B
0 1 2 3 4 5 6 7 8 9 10 11 12 13 14 15 16 17 18 19 20 21 22 23
(/) Slide Up  (\) Slide Down  (h) Hammer On  (p) Pull Off  (b) Bend (r) Release (v) Vibrato

Stave 1:

D|--------|-----|--------|--------|-----
A|--------|-----|--------|--------|-----
F|--------|-----|--------|--4--2--|-----
C|--5--4--|--2--|--4--5--|--------|--5--
G|--------|-----|--------|--------|-----
D|--------|-----|--------|--------|-----

Stave 2:

D|-----------|-----|--------|-----
A|-----------|-----|--3--1--|-----
F|-----------|--4--|--------|--4--
C|--2--4--5--|-----|--------|-----
G|-----------|-----|--------|-----
D|-----------|-----|--------|-----

Stave 3:

D|--------|-----|--------|--7--5--|--7--
A|--8--7--|--5--|--7--8--|--------|--8--
F|--------|-----|--------|--------|-----
C|--------|-----|--------|--------|-----
G|--------|-----|--------|--------|-----
D|--------|-----|--------|--------|-----

Stave 4:

D|--
A|--
F|--
C|--
G|--
D|--

							http://www.guitartabcreator.com
Chords

Instruments
{"strings":[[[".",".","|",".","|",".",".","|",".",".","|","."],[".",".","|",".","|",".",".","|",".",".","|","."],[".",".","|",".","|",".",".","|",4,2,"|","."],[5,4,"|",2,"|",4,5,"|",".",".","|",5],[".",".","|",".","|",".",".","|",".",".","|","."],[".",".","|",".","|",".",".","|",".",".","|","."]],[[".",".",".","|",".","|",".",".","|","."],[".",".",".","|",".","|",3,1,"|","."],[".",".",".","|",4,"|",".",".","|",4],[2,4,5,"|",".","|",".",".","|","."],[".",".",".","|",".","|",".",".","|","."],[".",".",".","|",".","|",".",".","|","."]],[[".",".","|",".","|",".",".","|",7,5,"|",7],[8,7,"|",5,"|",7,8,"|",".",".","|",8],[".",".","|",".","|",".",".","|",".",".","|","."],[".",".","|",".","|",".",".","|",".",".","|","."],[".",".","|",".","|",".",".","|",".",".","|","."],[".",".","|",".","|",".",".","|",".",".","|","."]],[[],[],[],[],[],[]]],"numberofstrings":6,"notes":["D","A","F","C","G","D"],"capo":0,"stringnotes":["D3","A2","F2","C2","G1","D1"],"comments":["Stave 1:","Stave 2:","Stave 3:","Stave 4:"],"timing":[["W","W",null,"W",null,"W","W",null,"W","W",null,"W"],["W","W","W",null,"W",null,"W","W",null,"W"],["W","W",null,"W",null,"W","W",null,"W","W",null,"W"],[]],"timingvisible":false,"tabcounter":0,"stave":3,"totalstaves":4,"instrument":"6guitar","selectedtuning":"Full Step Down","version":"13"}

Member for

3 years 8 months
Submitted by andyschumann on Sun, 2021-09-26 20:30