Dr. Phil Guitar

01234567891011121314151617181920212223
E
B
G
D
A
E
B
0 1 2 3 4 5 6 7 8 9 10 11 12 13 14 15 16 17 18 19 20 21 22 23
(/) Slide Up  (\) Slide Down  (h) Hammer On  (p) Pull Off  (b) Bend (r) Release (v) Vibrato

Stave 1:

D|---4---4---4---4---5---5---5---5---
A|---5---5---5---5---5---5---5---5---
F|---4---4---4---4---6---6---6---6---
C|-----------------------------------
G|-----------------------------------
D|-----------------------------------

Stave 2:

D|---4---4---4---4---5---5---5---5---4---4---4---4---7---7---7---7---
A|---4---4---4---4---5---5---5---5---4---4---4---4---7---7---7---7---
F|---5---5---5---5---6---6---6---6---5---5---5---5---8---8---8---8---
C|-------------------------------------------------------------------
G|-------------------------------------------------------------------
D|-------------------------------------------------------------------

Stave 3:

D|-------------------9---9---9---9-------------------------------------
A|---9---9---9---9---9---9---9---9-------------------------------------
F|---9---9---9---9---9---9---9---9---8---8---8---9---9---9---11---11---
C|---9---9---9---9---7---7---7---7-------------------------------------
G|---7---7---7---7---0---0---0---0---6---6---6---7---7---7---9----9----
D|---------------------------------------------------------------------

Stave 4:

D|-----------------------|------------------------------|------------------|--------------------
A|-----------------------|------------------------------|------------------|--------------------
F|---9-------------------|------------------------------|------------------|--------------------
C|-------9---9---9---9---|---9---9---11---9-------------|------------------|--------------------
G|-----------------------|--------------------12---11---|---11---11---11---|---7---9---11---9---
D|-----------------------|------------------------------|------------------|--------------------

Stave 5:

D|-------4-------4-------4-------4---
A|---5-------5-------4-------4-------
F|-----------------------------------
C|-----------------------------------
G|-----------------------------------
D|-----------------------------------

							http://www.guitartabcreator.com
Chords

Instruments
{"strings":[[[4,4,4,4,5,5,5,5],[5,5,5,5,5,5,5,5],[4,4,4,4,6,6,6,6],[".",".",".",".",".",".",".","."],[".",".",".",".",".",".",".","."],[".",".",".",".",".",".",".","."]],[[4,4,4,4,5,5,5,5,4,4,4,4,7,7,7,7],[4,4,4,4,5,5,5,5,4,4,4,4,7,7,7,7],[5,5,5,5,6,6,6,6,5,5,5,5,8,8,8,8],[".",".",".",".",".",".",".",".",".",".",".",".",".",".",".","."],[".",".",".",".",".",".",".",".",".",".",".",".",".",".",".","."],[".",".",".",".",".",".",".",".",".",".",".",".",".",".",".","."]],[[".",".",".",".",9,9,9,9,".",".",".",".",".",".",".","."],[9,9,9,9,9,9,9,9,".",".",".",".",".",".",".","."],[9,9,9,9,9,9,9,9,8,8,8,9,9,9,11,11],[9,9,9,9,7,7,7,7,".",".",".",".",".",".",".","."],[7,7,7,7,0,0,0,0,6,6,6,7,7,7,9,9],[".",".",".",".",".",".",".",".",".",".",".",".",".",".",".","."]],[[".",".",".",".",".","|",".",".",".",".",".",".","|",".",".",".","|",".",".",".","."],[".",".",".",".",".","|",".",".",".",".",".",".","|",".",".",".","|",".",".",".","."],[9,".",".",".",".","|",".",".",".",".",".",".","|",".",".",".","|",".",".",".","."],[".",9,9,9,9,"|",9,9,11,9,".",".","|",".",".",".","|",".",".",".","."],[".",".",".",".",".","|",".",".",".",".",12,11,"|",11,11,11,"|",7,9,11,9],[".",".",".",".",".","|",".",".",".",".",".",".","|",".",".",".","|",".",".",".","."]],[[".",4,".",4,".",4,".",4],[5,".",5,".",4,".",4,"."],[".",".",".",".",".",".",".","."],[".",".",".",".",".",".",".","."],[".",".",".",".",".",".",".","."],[".",".",".",".",".",".",".","."]]],"numberofstrings":6,"notes":["D","A","F","C","G","D"],"capo":0,"stringnotes":["D3","A2","F2","C2","G1","D1"],"comments":["Stave 1:","Stave 2:","Stave 3:","Stave 4:","Stave 5:"],"timing":[["W","W","W","W","W","W","W","W"],["W","W","W","W","W","W","W","W","W","W","W","W","W","W","W","W"],["W","W","W","W","W","W","W","W","W","W","W","W","W","W","W","W"],["W","W","W","W","W",null,"W","W","W","W","W","W",null,"W","W","W",null,"W","W","W","W"],["W","W","W","W","W","W","W","W"]],"timingvisible":false,"tabcounter":8,"stave":4,"totalstaves":5,"instrument":"6guitar","selectedtuning":"Full Step Down","version":"13"}

Member for

3 years 8 months
Submitted by andyschumann on Sat, 2021-08-28 17:11