Sound will begin in 5 seconds

Fab Fav

01234567891011121314151617181920212223
E
B
G
D
A
E
B
0 1 2 3 4 5 6 7 8 9 10 11 12 13 14 15 16 17 18 19 20 21 22 23
Song Science #1: How Pros Use 6 Chords to Write Hit Songs
(/) Slide Up  (\) Slide Down  (h) Hammer On  (p) Pull Off  (b) Bend (r) Release (v) Vibrato

Stave 1:

E|--------------------------------------------------------8/10--13p10--
B|--------------------------------------------------8/10---------------
G|--------------------------------5/7--------7--10---------------------
D|-----------------------------7---------------------------------------
A|--8--------5-----------5--8------------------------------------------
E|-----5--8------------------------------------------------------------

Stave 2:

E|-------------------------------------------------------------10/12--13/15--17--
B|-----------------------------------10h13--10-----10--13--14--------------------
G|----------------------------12--9----------------------------------------------
D|-----------5/7--------7/10-----------------------------------------------------
A|--------7----------------------------------------------------------------------
E|--5--8-------------------------------------------------------------------------

Stave 3:

E|--------------------
B|--------------------
G|--------------------
D|--------------------
A|-------10/12--------
E|--5/8---------------

Stave 4:

E|----------------------------------------------------------------------------
B|---------------------------------------------------------------------10/12--
G|-----------------------------------------------------------------11---------
D|-----------3v---------------------------------------------9--12-------------
A|-----3--5------5--3--5/7----------10/12-----10--12--------------------------
E|--5--------------------------5/8--------------------------------------------

http://www.guitartabcreator.com
Guitar Tab Creator is intended to store guitar tab created through the tool. It currently does not support in-line text editing. Any text you place in here will be lost. If you need to comment on your tab, please use the "Tab Notes" section located below.