/|\

(/) Slide Up  (\) Slide Down  (h) Hammer On  (p) Pull Off  (b) Bend (r) Release (v) Vibrato

Capo Fret 4

Stave 1:

E|-------0-4p0---4p0---2-----0---7---5---4---0-------7p4---7p4---5p2---4---2-------
B|-----4-----------------4---------------------4-------------------------------4---
G|---------------------------------------------------------------------------------
E|---0---------0-----0-----0---0---0---0---0-----0-------0-----0-----0---0---0---0-
A|---------------------------------------------------------------------------------
E|-0-----------------------------------------------0-------------------------------

Stave 2:

E|-0-------4p0---4p0---2-----0---7---5---4---0-------7p4---7p4---5p2---4---2-------
B|---4-------------------4---------------------4-------------------------------4---
G|---------------------------------------------------------------------------------
E|-----0-------0-----0-----0---0---0---0---0-----0-------0-----0-----0---0---0---0-
A|---------------------------------------------------------------------------------
E|-------0-----------------------------------------0-------------------------------

http://www.guitartabcreator.com
Guitar Tab Creator is intended to store guitar tab created through the tool. It currently does not support in-line text editing. Any text you place in here will be lost. If you need to comment on your tab, please use the "Tab Notes" section located below.