Sound will begin in 5 seconds

Soulful Emotional Guitar Solo in E minor

01234567891011121314151617181920212223
E
B
G
D
A
E
B
0 1 2 3 4 5 6 7 8 9 10 11 12 13 14 15 16 17 18 19 20 21 22 23
(/) Slide Up  (\) Slide Down  (h) Hammer On  (p) Pull Off  (b) Bend (r) Release (v) Vibrato

Stave 1:

E|------------------7--8--7-----------------7--8--7----------------7--10-----------------------7--8--
B|--------7--8--10-----------10--8--10--12-----------10--8--8--10---------10--12--8-----8--10--------
G|-----9-----------------------------------------------------------------------------9---------------
D|--9------------------------------------------------------------------------------------------------
A|---------------------------------------------------------------------------------------------------
E|---------------------------------------------------------------------------------------------------

Stave 2:

E|--------------------------------10--12--10--7----------------------7--8----------------------------------------------------------------
B|--10--12--12--12--12--10--8--8-----------------8--8--10-----8--10--------10--12--12--12--12--10--8--8------------------------7--8--10--
G|---------------------------------------------------------9---------------------------------------------7--9--7---------7--9------------
D|----------------------------------------------------------------------------------------------------------------9--10------------------
A|---------------------------------------------------------------------------------------------------------------------------------------
E|---------------------------------------------------------------------------------------------------------------------------------------

Stave 3:

E|--7--7--7--10--10--5--7--7--3--5--5--2--3--2--------------0-----0--0-----0-----0-----0-----0-----------------------------------2--3--2-----
B|----------------------------------------------5--3--3--5-----5--------7-----8-----7-----5-----3--0--------0--0--0--0-----3--5-----------5--
G|----------------------------------------------------------------------------------------------------2--4--------------4--------------------
D|-------------------------------------------------------------------------------------------------------------------------------------------
A|-------------------------------------------------------------------------------------------------------------------------------------------
E|-------------------------------------------------------------------------------------------------------------------------------------------

Stave 4:

E|--
B|--
G|--
D|--
A|--
E|--

http://www.guitartabcreator.com
Guitar Tab Creator is intended to store guitar tab created through the tool. It currently does not support in-line text editing. Any text you place in here will be lost. If you need to comment on your tab, please use the "Tab Notes" section located below.