Sound will begin in 5 seconds

Eyes of the World: Bob Weir

Chords
01234567891011121314151617181920212223
E
B
G
D
A
E
B
0 1 2 3 4 5 6 7 8 9 10 11 12 13 14 15 16 17 18 19 20 21 22 23
Song Science #1: How Pros Use 6 Chords to Write Hit Songs
(/) Slide Up  (\) Slide Down  (h) Hammer On  (p) Pull Off  (b) Bend (r) Release (v) Vibrato

Stave 1:

E|--11-------------|--11-----14-----11--|--16-----17-----16--|--
B|--12-----14--12--|--12-----14-----12--|--16-----17-----16--|--
G|--13-----14--13--|--13-----14-----13--|--16-----18-----16--|--
D|---------14--14--|--------------------|--------------------|--
A|-----------------|--------------------|--------------------|--
E|-----------------|--------------------|--------------------|--

Stave 2:

E|-----------|--------------|-----------------------------|--7--7--7-----5--5--5--|--
B|--9--9--9--|--------------|-----------------------------|--7--7--7-----5--5--5--|--
G|--8--9--8--|--14--14--14--|---------------9-------------|--7--7--7-----6--6--6--|--
D|-----------|--11--12--11--|------------9-----13--11--9--|--9--9--9-----7--7--7--|--
A|-----------|--------------|--7--9--11-------------------|--9--9--9-----7--7--7--|--
E|-----------|--------------|-----------------------------|--7--7--7-----5--5--5--|--

Stave 3:

E|--------------------------|----------------------------|-----------------|--------|--
B|--------------------------|----------------------------|-----------------|--------|--
G|--------------------------|----------------------------|-----------------|--------|--
D|-------------7--7h9p7-----|------------11--9h11p9------|--9--9h11p9------|--7-----|--
A|-----------------------9--|------------------------11--|-------------11--|--------|--
E|--5--5--7/9---------------|--9--9--12------------------|-----------------|--------|--

Stave 4:

E|------------------------------|------------------------|----------------5--|--
B|------------------------------|------------------------|-------7-----5--5--|--
G|------------------------------|------------------------|----------------6--|--
D|--------------11--9h11p9------|--9--------9--11b12--9--|--5/7-----7-----7--|--
A|--------------------------11--|-----9h11---------------|-------------------|--
E|--5/9--9--12------------------|------------------------|-------------------|--

Stave 5:

E|--4--|--5--|--4--|--5--5-----5-----8---8------|--|--
B|--5--|--5--|--5--|--5--5-----5-----8---8------|--|--
G|--4--|--6--|--4--|--6--6-----6-----9---9------|--|--
D|--6--|--7--|--6--|--7--7-----7-----10--10-----|--|--
A|--7--|--7--|--7--|--7--7-----7-----10--10-----|--|--
E|-----|--5--|-----|--5--5-----5-----8---8------|--|--

Stave 6:

E|-----------------------------|--8---8---8------8---8---8---|----------------------------------|--
B|-----------------------------|--8---8---10-----8---8---10--|----------------------------------|--
G|-----------------------------|--9---9---9------9---9---9---|------------------12--------------|--
D|--12--12--14-----12--12--14--|--10--10--10-----10--10--10--|--------------12------16--14--12--|--
A|--10--10--10-----10--10--10--|-----------------------------|--10--12--14----------------------|--
E|-----------------------------|-----------------------------|----------------------------------|--

Stave 7:

E|--8---8---8------8---8---8---|-----------------------------|--8---8---8------8---8---8---|--
B|--8---8---10-----8---8---10--|-----------------------------|--8---8---10-----8---8---10--|--
G|--9---9---9------9---9---9---|-----------------------------|--9---9---9------9---9---9---|--
D|--10--10--10-----10--10--10--|--12--12--14-----12--12--14--|--10--10--10-----10--10--10--|--
A|-----------------------------|--10--10--10-----10--10--10--|-----------------------------|--
E|-----------------------------|-----------------------------|-----------------------------|--

Stave 8:

E|----------------------------------|--8---8---8------8---8------9---9---|--10--10--10-----10--10--10--|--
B|----------------------------------|--8---8---10-----8---8------9---9---|--10--10--12-----10--10--12--|--
G|------------------12--------------|--9---9---9------9---9------10--10--|--11--11--11-----11--11--11--|--
D|--------------12------16--14--12--|--10--10--10-----10--10-----11--11--|--12--12--12-----12--12--12--|--
A|--10--12--14----------------------|------------------------------------|-----------------------------|--
E|----------------------------------|------------------------------------|-----------------------------|--

Stave 9:

E|--8---8---8------8---8---8---|----------------------------------|--8---8---8------8---8---8---|--
B|--8---8---10-----8---8---10--|----------------------------------|--8---8---10-----8---8---10--|--
G|--9---9---9------9---9---9---|------------------12--------------|--9---9---9------9---9---9---|--
D|--10--10--10-----10--10--10--|--------------12------16--14--12--|--10--10--10-----10--10--10--|--
A|-----------------------------|--10--12--14----------------------|-----------------------------|--
E|-----------------------------|----------------------------------|-----------------------------|--

Stave 10:

E|-----------------------------|--8---8---8------8---8---8---|--8-10--10--10-----10--10--|--
B|-----------------------------|--8---8---10-----8---8---10--|--8/10--10--10-----10--10--|--
G|-----------------------------|--9---9---9------9---9---9---|-------------------11--11--|--
D|--12--12--14-----12--12--14--|--10--10--10-----10--10--10--|-------------------12--12--|--
A|--10--10--10-----10--10--10--|-----------------------------|---------------------------|--
E|-----------------------------|-----------------------------|---------------------------|--

Stave 11:

E|--7--7-----7-----5--5-----5--|--
B|--7--7-----7-----5--5-----5--|--
G|--7--7-----7-----6--6-----6--|--
D|--9--9-----9-----7--7-----7--|--
A|--9--9-----9-----7--7-----7--|--
E|--7--7-----7-----5--5-----5--|--

http://www.guitartabcreator.com
Guitar Tab Creator is intended to store guitar tab created through the tool. It currently does not support in-line text editing. Any text you place in here will be lost. If you need to comment on your tab, please use the "Tab Notes" section located below.