Lubenica Akordi

Chords

01234567891011121314151617181920212223
E
B
G
D
A
E
B
0 1 2 3 4 5 6 7 8 9 10 11 12 13 14 15 16 17 18 19 20 21 22 23
(/) Slide Up  (\) Slide Down  (h) Hammer On  (p) Pull Off  (b) Bend (r) Release (v) Vibrato

Stave 1:

E|--------------------------------------------------------------------------------------------------------------------------
B|-----11-----10--------11-----10-----11-----11-------------------11-----10-----8------8-----10-----14----------------------
G|-----12-----11--------10-----11-----12-----12-----9------11-----12-----10-----9------8-----12-----12-----11---------------
D|-----12-----10--------12-----10-----12-----13-----11-----12-----12-----10-----10-----8-----11-----11-----12---------------
A|-----10-----12--------13-----9------10-----13-----10-----12-----10-----8------7------6-----12------------12---------9-----
E|-------------------------------------------11-----9------10----------------------------------------------10-----12-----x--

Stave 2:

E|--------------------------------------------------------------------------------------------------------------
B|-----11------------11------------11-----10-----8------8-----10-----14-----11------------------------------10--
G|-----12-----9------12-----9------12-----10-----9------8-----12-----12-----12------------------------------11--
D|-----12-----10-----12-----10-----12-----10-----10-----8-----10-----11-----12------------------------------10--
A|-----10-----10-----10-----10-----10-----8------7------6-----12------------10---------9--------------------9---
E|------------8-------------8------------------------------------------------------12---------------------------

							http://www.guitartabcreator.com
Instruments
{"strings":[[["_",".","_",".","_","_",".","_",".","_",".","_",".","_",".","_",".","_",".","_",".","_",".","_",".","_",".","_",".","_",".","_",".",".","_"],["_",11,"_",10,"_","_",11,"_",10,"_",11,"_",11,"_",".","_",".","_",11,"_",10,"_",8,"_",8,"_",10,"_",14,"_",".","_",".",".","_"],["_",12,"_",11,"_","_",10,"_",11,"_",12,"_",12,"_",9,"_",11,"_",12,"_",10,"_",9,"_",8,"_",12,"_",12,"_",11,"_",".",".","_"],["_",12,"_",10,"_","_",12,"_",10,"_",12,"_",13,"_",11,"_",12,"_",12,"_",10,"_",10,"_",8,"_",11,"_",11,"_",12,"_",".",".","_"],["_",10,"_",12,"_","_",13,"_",9,"_",10,"_",13,"_",10,"_",12,"_",10,"_",8,"_",7,"_",6,"_",12,"_",".","_",12,"_",".",9,"_"],["_",".","_",".","_","_",".","_",".","_",".","_",11,"_",9,"_",10,"_",".","_",".","_",".","_",".","_",".","_",".","_",10,"_",12,".","x"]],[["_",".","_",".","_",".","_",".","_",".","_",".","_",".","_",".","_",".","_",".","_",".","_",".",".","_","_","_","_","_","_","."],["_",11,"_",".","_",11,"_",".","_",11,"_",10,"_",8,"_",8,"_",10,"_",14,"_",11,"_",".",".","_","_","_","_","_","_",10],["_",12,"_",9,"_",12,"_",9,"_",12,"_",10,"_",9,"_",8,"_",12,"_",12,"_",12,"_",".",".","_","_","_","_","_","_",11],["_",12,"_",10,"_",12,"_",10,"_",12,"_",10,"_",10,"_",8,"_",10,"_",11,"_",12,"_",".",".","_","_","_","_","_","_",10],["_",10,"_",10,"_",10,"_",10,"_",10,"_",8,"_",7,"_",6,"_",12,"_",".","_",10,"_",".",9,"_","_","_","_","_","_",9],["_",".","_",8,"_",".","_",8,"_",".","_",".","_",".","_",".","_",".","_",".","_",".","_",12,".","_","_","_","_","_","_","."]]],"numberofstrings":6,"notes":["E","B","G","D","A","E","B"],"capo":0,"stringnotes":["E4","B3","G3","D3","A2","E2"],"comments":["Stave 1:","Stave 2:"],"timing":[["W","W",null,"W",null,"W","W",null,"W",null,"W",null,"W",null,"W",null,"W",null,"W",null,"W",null,"W",null,"W",null,"W",null,"W",null,"W",null,"W","W",null,"W"],[null,"W",null,"W",null,"W",null,"W",null,"W",null,"W",null,"W",null,"W",null,"W",null,"W",null,"W",null,"W","W",null,null,null,null,null,null,"W"]],"timingvisible":false,"tabcounter":31,"stave":1,"totalstaves":2,"instrument":"6guitar","selectedtuning":"6_standard","version":"13"}

Member for

4 weeks 1 day
Submitted by andrewkatic on Thu, 2020-11-19 14:59