L'appartmente - Ludvic Alario

01234567891011121314151617181920212223
E
B
G
D
A
E
B
0 1 2 3 4 5 6 7 8 9 10 11 12 13 14 15 16 17 18 19 20 21 22 23
(/) Slide Up  (\) Slide Down  (h) Hammer On  (p) Pull Off  (b) Bend (r) Release (v) Vibrato

Stave 1:

E|------------------------------|--------------------------------
B|------------------------------|--------------------------------
G|-------7-------7-----7-----7--|-------7-------7-----7h9--7-----
D|--7h9-----7h9-----7-----7-----|--7h9-----7h9----------------9--
A|------------------------------|--------------------------------
E|------------------------------|--------------------------------

Stave 2:

E|---------------------------------|-----------------------------------
B|------------------------7--------|----------------------10-----------
G|-------7-------7-----7-----9--7--|-------7-----------9------9--------
D|--7h9-----7h9-----7--------------|--7h9-----9--9/11------------11\9--
A|---------------------------------|-----------------------------------
E|---------------------------------|-----------------------------------

							http://www.guitartabcreator.com
Chords

Instruments
{"strings":[[[".",".",".",".",".",".",".",".",".",".",".",".","|",".",".",".",".",".",".",".",".","_",".",".",".",".","."],[".",".",".",".",".",".",".",".",".",".",".",".","|",".",".",".",".",".",".",".",".","_",".",".",".",".","."],[".",".",".",7,".",".",".",7,".",7,".",7,"|",".",".",".",7,".",".",".",7,"_",7,"h",9,7,"."],[7,"h",9,".",7,"h",9,".",7,".",7,".","|",7,"h",9,".",7,"h",9,".","_",".",".",".",".",9],[".",".",".",".",".",".",".",".",".",".",".",".","|",".",".",".",".",".",".",".",".","_",".",".",".",".","."],[".",".",".",".",".",".",".",".",".",".",".",".","|",".",".",".",".",".",".",".",".","_",".",".",".",".","."]],[[".",".",".",".",".",".",".",".",".",".",".",".",".","|",".",".",".",".",".",".",".",".",".",".",".",".",".","."],[".",".",".",".",".",".",".",".",".",".",7,".",".","|",".",".",".",".",".",".",".",".",".",10,".",".",".","."],[".",".",".",7,".",".",".",7,".",7,".",9,7,"|",".",".",".",7,".",".",".",".",9,".",9,".",".","."],[7,"h",9,".",7,"h",9,".",7,".",".",".",".","|",7,"h",9,".",9,9,"/",11,".",".",".",11,"\\",9],[".",".",".",".",".",".",".",".",".",".",".",".",".","|",".",".",".",".",".",".",".",".",".",".",".",".",".","."],[".",".",".",".",".",".",".",".",".",".",".",".",".","|",".",".",".",".",".",".",".",".",".",".",".",".",".","."]]],"numberofstrings":6,"notes":["E","B","G","D","A","E","B"],"capo":0,"stringnotes":["E4","B3","G3","D3","A2","E2"],"comments":["Stave 1:","Stave 2:"],"timing":[["W",null,"W","W","W",null,"W","W","W","W","W","W",null,"W",null,"W","W","W",null,"W","W","W","W",null,"W","W","W"],["W",null,"W","W","W",null,"W","W","W","W","W","W","W",null,"W",null,"W","W","W","W",null,"W","W","W","W","W",null,"W"]],"timingvisible":false,"tabcounter":28,"stave":1,"totalstaves":2,"instrument":"6guitar","selectedtuning":"6_standard","version":"13"}

Member for

1 month 2 weeks
Submitted by andrewdethloffmusic on Fri, 2021-06-04 15:58