Skip to main content

Jimi Hendrix - Hey Joe (Solo) E

0 1 2 3 4 5 6 7 8 9 10 11 12 13 14 15 16 17 18 19 20 21 22 23
E
B
G
D
A
E
0 1 2 3 4 5 6 7 8 9 10 11 12 13 14 15 16 17 18 19 20 21 22 23
(/) Slide Up  (\) Slide Down  (h) Hammer On  (p) Pull Off  (b) Bend (r) Release (v) Vibrato

Stave 1:

E|---------12-------------------------------|---------12----------------------------------------------------|--
B|--15b17------15--12-----------------------|--15b17------15--12---------12---------------------------------|--
G|---------------------14b16b14p12------12--|---------------------14b16------14--12--14p12------12------12--|--
D|----------------------------------14------|-----------------------------------------------14------14------|--
A|------------------------------------------|---------------------------------------------------------------|--
E|------------------------------------------|---------------------------------------------------------------|--

Stave 2:

E|--------------------------|----------------------|--
B|--------------------------|--15b17-----15b17-----|--
G|-----------------12-------|----------------------|--
D|---------12--14------14v--|----------------------|--
A|--12/14-------------------|----------------------|--
E|--------------------------|----------------------|--

Stave 3:

E|--12--12--12---------12--12------------------------------|--
B|--12--15--12--12-----12--15---------12-------------------|--
G|--------------14b16----------14b16--------------14--12v--|--
D|----------------------------------------12--14-----------|--
A|---------------------------------------------------------|--
E|---------------------------------------------------------|--

Stave 4:

E|-------------12--15b17--15--12--|-------------12----------------------|--
B|---------12---------------------|---------15------15------------------|--
G|--14b16-------------------------|--14b16--------------14b16--12-------|--
D|--------------------------------|--------------------------------14v--|--
A|--------------------------------|-------------------------------------|--
E|--------------------------------|-------------------------------------|--

Stave 5:

E|---------------------------
B|---------------------------
G|-----------------12--------
D|---------14--16------14v--\
A|--12/16--------------------
E|---------------------------

Stave 6:

E|--------------------------|--------------------------|-----
B|--------------------------|--------------------------|-----
G|--------------------------|--------------------------|-----
D|--------------------------|--------------------------|-----
A|--3--------------2--3--4--|--5--------------4--5--6--|--7--
E|-----0--1--2--3-----------|-----2--3--4--5-----------|--0--

							https://www.guitartabcreator.com
Chords

Instruments
{"strings":[[[".",".",".",12,".",".",".",".",".",".",".",".",".",".",".","|",".",".",".",12,".",".",".",".",".",".",".",".",".",".",".",".",".",".",".","|"],[15,"b",17,".",15,12,".",".",".",".",".",".",".",".",".","|",15,"b",17,".",15,12,".",".",".",12,".",".",".",".",".",".",".",".",".","|"],[".",".",".",".",".",".",14,"b",16,"b",14,"p",12,".",12,"|",".",".",".",".",".",".",14,"b",16,".",14,12,14,"p",12,".",12,".",12,"|"],[".",".",".",".",".",".",".",".",".",".",".",".",".",14,".","|",".",".",".",".",".",".",".",".",".",".",".",".",".",".",".",14,".",14,".","|"],[".",".",".",".",".",".",".",".",".",".",".",".",".",".",".","|",".",".",".",".",".",".",".",".",".",".",".",".",".",".",".",".",".",".",".","|"],[".",".",".",".",".",".",".",".",".",".",".",".",".",".",".","|",".",".",".",".",".",".",".",".",".",".",".",".",".",".",".",".",".",".",".","|"]],[[".",".",".",".",".",".",".",".","|",".",".",".","_",".",".",".","_","|"],[".",".",".",".",".",".",".",".","|",15,"b",17,"_",15,"b",17,"_","|"],[".",".",".",".",".",12,".",".","|",".",".",".","_",".",".",".","_","|"],[".",".",".",12,14,".",14,"v","|",".",".",".","_",".",".",".","_","|"],[12,"/",14,".",".",".",".",".","|",".",".",".","_",".",".",".","_","|"],[".",".",".",".",".",".",".",".","|",".",".",".","_",".",".",".","_","|"]],[[12,12,12,".",".",".",12,12,".",".",".",".",".",".",".",".",".","|"],[12,15,12,12,".",".",12,15,".",".",".",12,".",".",".",".",".","|"],[".",".",".",14,"b",16,".",".",14,"b",16,".",".",".",14,12,"v","|"],[".",".",".",".",".",".",".",".",".",".",".",".",12,14,".",".",".","|"],[".",".",".",".",".",".",".",".",".",".",".",".",".",".",".",".",".","|"],[".",".",".",".",".",".",".",".",".",".",".",".",".",".",".",".",".","|"]],[[".",".",".",".",12,15,"b",17,15,12,"|",".",".",".",".",12,".",".",".",".",".",".",".","|"],[".",".",".",12,".",".",".",".",".",".","|",".",".",".",15,".",15,".",".",".",".",".",".","|"],[14,"b",16,".",".",".",".",".",".",".","|",14,"b",16,".",".",".",14,"b",16,12,".",".","|"],[".",".",".",".",".",".",".",".",".",".","|",".",".",".",".",".",".",".",".",".",".",14,"v","|"],[".",".",".",".",".",".",".",".",".",".","|",".",".",".",".",".",".",".",".",".",".",".",".","|"],[".",".",".",".",".",".",".",".",".",".","|",".",".",".",".",".",".",".",".",".",".",".",".","|"]],[[".",".",".",".",".",".",".",".","."],[".",".",".",".",".",".",".",".","."],[".",".",".",".",".",12,".",".","."],[".",".",".",14,16,".",14,"v","\\"],[12,"/",16,".",".",".",".",".","."],[".",".",".",".",".",".",".",".","."]],[[".",".",".",".",".",".",".",".","|",".",".",".",".",".",".",".",".","|","."],[".",".",".",".",".",".",".",".","|",".",".",".",".",".",".",".",".","|","."],[".",".",".",".",".",".",".",".","|",".",".",".",".",".",".",".",".","|","."],[".",".",".",".",".",".",".",".","|",".",".",".",".",".",".",".",".","|","."],[3,".",".",".",".",2,3,4,"|",5,".",".",".",".",4,5,6,"|",7],[".",0,1,2,3,".",".",".","|",".",2,3,4,5,".",".",".","|",0]]],"numberofstrings":6,"notes":["E","B","G","D","A","E","B"],"capo":0,"stringnotes":["E4","B3","G3","D3","A2","E2"],"comments":["Stave 1:","Stave 2:","Stave 3:","Stave 4:","Stave 5:","Stave 6:"],"timing":[["Q",null,"Q","Q","Q","Q","Q",null,"Q",null,"Q",null,"Q","Q","Q",null,"Q",null,"Q","Q","Q","Q","Q",null,"Q","Q","Q","Q","Q",null,"Q","Q","Q","Q","Q"],["Q",null,"Q","Q","Q","Q","Q",null,null,"Q",null,"Q","Q","Q",null,"Q","Q"],["Q","Q","Q","Q",null,"Q","Q","Q","Q",null,"Q","Q","Q","Q","Q","Q"],["Q",null,"Q","Q","Q","Q",null,"Q","Q","Q",null,"Q",null,"Q","Q","Q","Q","Q",null,"Q","Q","Q"],["Q",null,"Q","Q","Q","Q","Q"],["Q","Q","Q","Q","Q","Q","Q","Q",null,"Q","Q","Q","Q","Q","Q","Q","Q",null,"Q"]],"timingvisible":false,"tabcounter":18,"stave":5,"totalstaves":6,"instrument":"6guitar","selectedtuning":"6_standard","version":"13"}
Submitted by andre_truppel on