God of the Promise

Chords

01234567891011121314151617181920212223
E
B
G
D
A
E
B
0 1 2 3 4 5 6 7 8 9 10 11 12 13 14 15 16 17 18 19 20 21 22 23
(/) Slide Up  (\) Slide Down  (h) Hammer On  (p) Pull Off  (b) Bend (r) Release (v) Vibrato

Intro:

G|-------------------------------------------------------------------
D|-------------------------------------------------------------------
A|-------------------2---2---2---2-----------------------------------
E|---2---2---2---2-------------------3---3---3---3---3---3---3---3---

Intro cont'd

G|-------------------------------------------------------------
D|-----------------------------------------------3/5---5---5---
A|-------------------2---2---2---2-----------------------------
E|---2---2---2---2-------------------3---3---3-----------------

VERSE 1: I'm not gonna wait. Wait for the walls to fall.

G|---
D|---
A|---
E|---

Cause I know a name. That can bring them down!

G|---
D|---
A|---
E|---

I've got a praise. Waking within my soul.

G|---------------------5-----------------------------
D|---12\4---4---4-------------5---5---5----------5---
A|-------------------------------------------5-------
E|---------------------------------------------------

And I'm not ashamed to declare it now!

G|---------------------------------------
D|---4---4---4------5--------------------
A|-------------------------5---5---5\0---
E|---------------------------------------

							http://www.guitartabcreator.com
Instruments
{"title":"God of the Promise","strings":[[[".",".",".",".",".",".",".",".",".",".",".",".",".",".",".","."],[".",".",".",".",".",".",".",".",".",".",".",".",".",".",".","."],[".",".",".",".",2,2,2,2,".",".",".",".",".",".",".","."],[2,2,2,2,".",".",".",".",3,3,3,3,3,3,3,3]],[[".",".",".",".",".",".",".",".",".",".",".",".",".",".",".","."],[".",".",".",".",".",".",".",".",".",".",".",3,"/",5,5,5],[".",".",".",".",2,2,2,2,".",".",".",".",".",".",".","."],[2,2,2,2,".",".",".",".",3,3,3,".",".",".",".","."]],[[],[],[],[]],[[],[],[],[]],[[".",".",".",".",".","_",5,"_",".",".",".","_",".","."],[12,"\\",4,4,4,"_",".","_",5,5,5,"_",".",5],[".",".",".",".",".","_",".","_",".",".",".","_",5,"."],[".",".",".",".",".","_",".","_",".",".",".","_",".","."]],[[".",".",".","_",".","_",".",".",".",".","."],[4,4,4,"_",5,"_",".",".",".",".","."],[".",".",".","_",".","_",5,5,5,"\\",0],[".",".",".","_",".","_",".",".",".",".","."]]],"numberofstrings":4,"notes":["G","D","A","E"],"capo":0,"stringnotes":["G2","D2","A1","E1"],"comments":["Intro:","Intro cont'd","VERSE 1: I'm not gonna wait. Wait for the walls to fall.","Cause I know a name. That can bring them down!","I've got a praise. Waking within my soul.","And I'm not ashamed to declare it now!"],"timing":[["W","W","W","W","W","W","W","W","W","W","W","W","W","W","W","W"],["W","W","W","W","W","W","W","W","W","W","W","W",null,"W","W","W","W","W","W","W"],[],["W",null,null,null,null,null,null,null,null,null,null,null,null,"W"],["W",null,"W","W","W","W","W","W","W","W","W","W","W","W","W","W","W","W"],["W","W","W",null,"W",null,"W","W","W",null,"W"]],"timingvisible":false,"tabcounter":11,"stave":5,"totalstaves":6,"instrument":"4bass","selectedtuning":"4bass_standard","version":"13"}

Member for

7 months 2 weeks
Submitted by andrescik on Mon, 2020-03-02 20:13