Sound will begin in 5 seconds

Yeah!? What's It Tuba!?

01234567891011121314151617181920212223
E
B
G
D
A
E
B
0 1 2 3 4 5 6 7 8 9 10 11 12 13 14 15 16 17 18 19 20 21 22 23
Song Science #1: How Pros Use 6 Chords to Write Hit Songs
(/) Slide Up  (\) Slide Down  (h) Hammer On  (p) Pull Off  (b) Bend (r) Release (v) Vibrato

Stave 1:

E|---10-8---10-8------
B|---------------10-8-
G|--------------------
D|-8------8-----------
A|--------------------
E|--------------------

Stave 2:

E|-13----12----8----------12b13r12---
B|------------------10---------------
G|-----------------------------------
D|-----------------------------------
A|-----------------------------------
E|-----------------------------------

Stave 3:

E|-------------------
B|-------------------
G|---10-9-----9------
D|-8------8-7---10-8-
A|-------------------
E|-------------------

Stave 4:

E|----------------------
B|----------------------
G|---10-9--------9------
D|-8------8-7h10---10-8-
A|----------------------
E|----------------------

Stave 5:

E|------12-8-------------12-8-
B|-10--------------10---------
G|----------------------------
D|----------------------------
A|----------------------------
E|----------------------------

Stave 6:

E|-----------------------------------------------------------------------------------------
B|-----------------------------------------------------------------------------------------
G|-----------------------------------------------------------------------------------------
D|------------------------------------------------------------------------------------8-10-
A|---------------------------------------------5----5----5----5-5----8----8----8-8---------
E|-6----6----6----6-6----6----6----6----6-6------------------------------------------------

http://www.guitartabcreator.com
Guitar Tab Creator is intended to store guitar tab created through the tool. It currently does not support in-line text editing. Any text you place in here will be lost. If you need to comment on your tab, please use the "Tab Notes" section located below.