Sound will begin in 5 seconds

Vampyre of time and memory

01234567891011121314151617181920212223
E
B
G
D
A
E
B
0 1 2 3 4 5 6 7 8 9 10 11 12 13 14 15 16 17 18 19 20 21 22 23
Song Science #1: How Pros Use 6 Chords to Write Hit Songs
(/) Slide Up  (\) Slide Down  (h) Hammer On  (p) Pull Off  (b) Bend (r) Release (v) Vibrato

Stave 1:

E|--------------|------------------------|-----------------------------------------------|-----------|--
B|--------8b10--|------------------------|--------8b10r8--6h8p6--------------------------|-----------|--
G|--------------|-----------7p0--7--0--7\|--------------------------------7--0--7--0--7--|-----------|--
D|--------------|------------------------|-----------------------9b11--7-----------------|--5--7-----|--
A|--------------|------------------------|-----------------------------------------------|--------5--|--
E|--------------|------------------------|-----------------------------------------------|-----------|--

Stave 2:

E|--------------------7b9--|-----------------------------------7b9--
B|--8b10--8b10--8--6-------|--8b10--8b10b8--6-----8b10b8--6h8-------
G|-------------------------|-------------------7--------------------
D|-------------------------|----------------------------------------
A|-------------------------|----------------------------------------
E|-------------------------|----------------------------------------

Stave 3:

E|--------|-----|-----|-----|-----|-----|-----|----------------|--------------------|-----------|--
B|--------|-----|-----|-----|-----|-----|-----|----------------|--------------------|-----------|--
G|--------|--4--|-----|-----|-----|-----|-----|----------------|--------------------|--0-----2--|--
D|--------|-----|--3--|-----|-----|--3--|-----|--5b7--5--3-----|--3--2--3-----2--3--|-----------|--
A|--5--3--|-----|-----|--3--|--5--|-----|--3--|-------------5--|--------------------|-----------|--
E|--------|-----|-----|-----|-----|-----|-----|----------------|--------------------|-----------|--

Stave 4:

E|-----------|-----------|-----------|-----|---------------------------------|--
B|-----------|-----------|-----------|-----|---------------------------------|--
G|--0--2-----|-----------|-----------|-----|-----------------------0---------|--
D|--------3--|--------0--|--------2--|-----|--------0--2--3--2--0-----2b3b2--|--
A|-----------|--1--3-----|-----2-----|--0--|--1--3---------------------------|--
E|-----------|-----------|--4--------|-----|---------------------------------|--

Stave 5:

E|------------------------------------|-----------------------------------------|--
B|------------------------------------|-----------------------------------------|--
G|------------------------------------|-----------------------------------------|--
D|--5b6b5b6b5-------------------------|--------------------------------------7--|--
A|-------------8--7v--5--4b5b4--------|-----7-----7--4--------4--7b8b7--7p5-----|--
E|------------------------------7--5--|--5-----5--------5--7--------------------|--

Stave 6:

E|----------------------------------------|------------|----------------------|--
B|--10b11b10--8------8b9b8----------------|------------|------------8b10------|--
G|---------------10---------10--9--10--9--|--10b12--9--|--10b11b10------------|--
D|----------------------------------------|------------|------------------11--|--
A|----------------------------------------|------------|----------------------|--
E|----------------------------------------|------------|----------------------|--

Stave 7:

E|-----------------|--
B|--8b10b8---------|--
G|----------9------|--
D|-------------11--|--
A|-----------------|--
E|-----------------|--

http://www.guitartabcreator.com
Guitar Tab Creator is intended to store guitar tab created through the tool. It currently does not support in-line text editing. Any text you place in here will be lost. If you need to comment on your tab, please use the "Tab Notes" section located below.