Sound will begin in 5 seconds

G lydian dominant oktav til oktav

01234567891011121314151617181920212223
E
B
G
D
A
E
B
0 1 2 3 4 5 6 7 8 9 10 11 12 13 14 15 16 17 18 19 20 21 22 23
(/) Slide Up  (\) Slide Down  (h) Hammer On  (p) Pull Off  (b) Bend (r) Release (v) Vibrato

1. position

E|-----------------------------------------1--3--5--
B|--------------------------------2--3--5-----------
G|--------------------------2--4--------------------
D|-----------------2--3--5--------------------------
A|--------2--4--5-----------------------------------
E|--3--5--------------------------------------------

2. position

E|--------------------------------------------5--7--9-----
B|-----------------------------------5--6--8--------------
G|--------------------------4--6--7-----------------------
D|--------------------5--7--------------------------------
A|-----------5--7--8--------------------------------------
E|--5--7--9-----------------------------------------------

3. position

E|-------------------------------------------------7--9--10--10-----------
B|------------------------------------------8--10-------------------------
G|--------------------------------7--9--10--------------------------------
D|----------------------7--9--11------------------------------------------
A|------------7--8--10----------------------------------------------------
E|--7--9--10--------------------------------------------------------------

4. position

E|------------------------------------------------------------9--10--12--
B|----------------------------------------------------10--12-------------
G|-----------------------------------------9--10--12---------------------
D|------------------------------9--11--12--------------------------------
A|-------------------8--10--12-------------------------------------------
E|--------9--10--12------------------------------------------------------

5. position

E|--------------------------------------------------------------12--13--15--
B|--------------------------------------------------12--14--15--------------
G|--------------------------------------12--14--16--------------------------
D|--------------------------12--14--15--------------------------------------
A|--------------12--14--16--------------------------------------------------
E|--12--13--15--------------------------------------------------------------

http://www.guitartabcreator.com
Guitar Tab Creator is intended to store guitar tab created through the tool. It currently does not support in-line text editing. Any text you place in here will be lost. If you need to comment on your tab, please use the "Tab Notes" section located below.