Sound will begin in 5 seconds

Fear of the Dark Solo Beginning

Chords
01234567891011121314151617181920212223
E
B
G
D
A
E
B
0 1 2 3 4 5 6 7 8 9 10 11 12 13 14 15 16 17 18 19 20 21 22 23
Song Science #1: How Pros Use 6 Chords to Write Hit Songs
(/) Slide Up  (\) Slide Down  (h) Hammer On  (p) Pull Off  (b) Bend (r) Release (v) Vibrato

Stave 1:

E|--------------------------------10--10--10--
B|--13-----------------10---------10--10--10--
G|--12b12r10------10\3/10--12b12--------------
D|------------12------------------------------
A|--------------------------------------------
E|--------------------------------------------

Stave 2:

E|--13b14--13--12--10-------------------------------------------------------
B|---------------------10--13--11--10------10-------------------------------
G|-------------------------------------12------12--10------10--12--10\5/12--
D|-----------------------------------------------------12-------------------
A|--------------------------------------------------------------------------
E|--------------------------------------------------------------------------

Stave 3:

E|--15b16--13--12--13--12---------------------------------------------------
B|-------------------------13--12--13--15-----------------------------------
G|-----------------------------------------12\10--12b13--13r12--10------10--
D|------------------------------------------------------------------12------
A|--------------------------------------------------------------------------
E|--------------------------------------------------------------------------

Stave 4:

E|----------------------------------------------------------------------------
B|--13------------------------------------------------------------------------
G|--12b13--13r12--10------10--------------------------------------------------
D|--------------------12------12--10------10----------------------------------
A|------------------------------------12------12--11--10--8--10--8------------
E|------------------------------------------------------------------10--10\0--

http://www.guitartabcreator.com
Guitar Tab Creator is intended to store guitar tab created through the tool. It currently does not support in-line text editing. Any text you place in here will be lost. If you need to comment on your tab, please use the "Tab Notes" section located below.