Wheres the Hope (Rhythm Guitar)

Chords

01234567891011121314151617181920212223
E
B
G
D
A
E
B
0 1 2 3 4 5 6 7 8 9 10 11 12 13 14 15 16 17 18 19 20 21 22 23
(/) Slide Up  (\) Slide Down  (h) Hammer On  (p) Pull Off  (b) Bend (r) Release (v) Vibrato

Intro/Verse Chords

Bb|-------------------------
Gb|-------------------------
Db|--7-----10-----9------7--
Ab|--9-----12-----10-----5--
Db|--0-----0------10-----5--
Ab|-------------------------

Chorus

Bb|-------------------------------------------------------------------------
Gb|-------------------------------------------------------------------------
Db|--12-----14-----15-----12--------------12-----17-----15-----12-----------
Ab|--0------0------0------10--------------0------0------0------10-----------
Db|--0------0------0------10--------------0------0------0------10-----------
Ab|-------------------------------------------------------------------------

Bridge

Bb|------------------------------------------------------------------------------------------------------
Gb|----------------------9-----------------------------------------------------9-------------------------
Db|--10-----12-----0--------11-----10-----12-----15--------10-----12-----0--------11-----10-----5-----7--
Ab|--8------10-----0---------------8------10-----12--------8------10-----0---------------8------3-----5--
Db|--8------10-----0---------------8------10-----12--------8------10-----0---------------8------3-----5--
Ab|------------------------------------------------------------------------------------------------------



Bb|---------------------------------------------------------------------------------------
Gb|---------------------------------------------------------------------------------------
Db|--0-----------0----------------------------0-----------0-------------------------------
Ab|--0-----------0----------------------------0-----------0-------------------------------
Db|--0--0--0--0--0--14--12--0--10--12--14-----0--0--0--0--0--14--12--0--10--12--10--------
Ab|---------------------------------------------------------------------------------------



Bb|----------------------------------------------------------------------
Gb|----------------------------------------------------------------------
Db|--8-----------8-----------8-----7-----------10--------------8--7------
Ab|--8-----------8-----------8-----7-----------10--------------------10--
Db|--8--8--8--8--8--8--8--8--8-----7--7--7--7--10--10--10--10------------
Ab|----------------------------------------------------------------------

							http://www.guitartabcreator.com
Instruments
{"title":"Wheres the Hope (Rhythm Guitar)","strings":[[[".",".",".",".",".",".","."],[".",".",".",".",".",".","."],[7,".",10,".",9,".",7],[9,".",12,".",10,".",5],[0,".",0,".",10,".",5],[".",".",".",".",".",".","."]],[[".",".",".",".",".",".",".",".",".",".",".",".",".",".",".",".",".",".",".",".","."],[".",".",".",".",".",".",".",".",".",".",".",".",".",".",".",".",".",".",".",".","."],[12,".",14,".",15,".",12,".",".",".",".",12,".",17,".",15,".",12,".",".","."],[0,".",0,".",0,".",10,".",".",".",".",0,".",0,".",0,".",10,".",".","."],[0,".",0,".",0,".",10,".",".",".",".",0,".",0,".",0,".",10,".",".","."],[".",".",".",".",".",".",".",".",".",".",".",".",".",".",".",".",".",".",".",".","."]],[[".",".",".",".",".",".",".",".",".",".",".",".",".",".",".",".",".",".",".",".",".",".",".",".",".",".",".",".",".","."],[".",".",".",".",".",".",9,".",".",".",".",".",".",".",".",".",".",".",".",".",".",".",9,".",".",".",".",".",".","."],[10,".",12,".",0,".",".",11,".",10,".",12,".",15,".",".",10,".",12,".",0,".",".",11,".",10,".",5,".",7],[8,".",10,".",0,".",".",".",".",8,".",10,".",12,".",".",8,".",10,".",0,".",".",".",".",8,".",3,".",5],[8,".",10,".",0,".",".",".",".",8,".",10,".",12,".",".",8,".",10,".",0,".",".",".",".",8,".",3,".",5],[".",".",".",".",".",".",".",".",".",".",".",".",".",".",".",".",".",".",".",".",".",".",".",".",".",".",".",".",".","."]],[[".",".",".",".",".",".",".",".",".",".",".",".",".",".",".",".",".",".",".",".",".",".",".",".","."],[".",".",".",".",".",".",".",".",".",".",".",".",".",".",".",".",".",".",".",".",".",".",".",".","."],[0,".",".",".",0,".",".",".",".",".",".",".",0,".",".",".",0,".",".",".",".",".",".",".","."],[0,".",".",".",0,".",".",".",".",".",".",".",0,".",".",".",0,".",".",".",".",".",".",".","."],[0,0,0,0,0,14,12,0,10,12,14,".",0,0,0,0,0,14,12,0,10,12,10,".","."],[".",".",".",".",".",".",".",".",".",".",".",".",".",".",".",".",".",".",".",".",".",".",".",".","."]],[[".",".",".",".",".",".",".",".",".",".",".",".",".",".",".",".",".",".",".",".","."],[".",".",".",".",".",".",".",".",".",".",".",".",".",".",".",".",".",".",".",".","."],[8,".",".",".",8,".",".",".",8,".",7,".",".",".",10,".",".",".",8,7,"."],[8,".",".",".",8,".",".",".",8,".",7,".",".",".",10,".",".",".",".",".",10],[8,8,8,8,8,8,8,8,8,".",7,7,7,7,10,10,10,10,".",".","."],[".",".",".",".",".",".",".",".",".",".",".",".",".",".",".",".",".",".",".",".","."]]],"numberofstrings":6,"notes":["AsBb","FsGb","CsDb","GsAb","CsDb","GsAb","B"],"capo":0,"stringnotes":["Bb2","Gb2","Db4","Ab1","Db4","Ab5"],"comments":["Intro/Verse Chords","Chorus","Bridge","",""],"timing":[[null,"W",null,"W",null,"W",null,"W"],[null,"W",null,"W",null,"W",null,"W","W","W","W",null,"W",null,"W",null,"W",null,"W","W","W","W"],[null,"W",null,"W",null,"W",null,"W","W",null,"W",null,"W",null,"W",null,null,"W",null,"W",null,"W",null,"W","W",null,"W",null,"W",null,"W"],[null,"W","W","W","W","W","W","W","W","W","W","W",null,"W","W","W","W","W","W","W","W","W","W","W"],[null,"W","W","W","W","W","W","W","W","W",null,"W","W","W","W","W","W","W","W","W","W","W"]],"timingvisible":false,"tabcounter":21,"stave":4,"totalstaves":5,"instrument":"6guitar","selectedtuning":"6_standard","version":"13"}

Member for

4 years 5 months
Submitted by amongstkc on Fri, 2019-03-15 09:37