test

Chords

01234567891011121314151617181920212223
E
B
G
D
A
E
B
0 1 2 3 4 5 6 7 8 9 10 11 12 13 14 15 16 17 18 19 20 21 22 23
(/) Slide Up  (\) Slide Down  (h) Hammer On  (p) Pull Off  (b) Bend (r) Release (v) Vibrato

Intro Riff For All This For Nothing

Gb|-----5--------------------5-----7/9--9b10r9-----
Db|--------7-----------5--7------------------------
Ab|--5--------------7------------------------------
Db|------------------------------------------------
Ab|------------------------------------------------

In The Middle Solo & Bridge

Gb|---------------------------------------------------------------------------------------------------------------
Db|---------------------------------------------------------------------------------------------------------------
Ab|------------------8-----8------------------------0--8---------------------8-----8---------------------8--------
Db|--8-----10-----0-----0-----------8-----10-----0-----------8-----10-----0-----0--------8-----10-----0-----0-----
Ab|---------------------------------------------------------------------------------------------------------------



Gb|------------------------------------------------------------------------------------------------------
Db|------------------------------------------------------------------------------------------------------
Ab|------------------------------------------------------------------------------------------------------
Db|--0-----0--0--0-----0-----14--12--0--10--12--14--------0-----0--0--0-----0-----14--12--0--10--12--10--
Ab|------------------------------------------------------------------------------------------------------



Gb|-------------------------------------------------------------------------------------------------
Db|-------------------------------------------------------------------------------------------------
Ab|---------------------------------------------------------------------------------------8--7------
Db|--8-----8--8--8-----8-----8--8--8-----8-----8--7-----7--7--7-----10-----10--10--10-----------10--
Ab|-------------------------------------------------------------------------------------------------

							http://www.guitartabcreator.com
Instruments
{"title":"","strings":[[[".",5,".",".",".",".",".",".",5,".",7,"/",9,9,"b",10,"r",9,"."],[".",".",7,".",".",".",5,7,".",".",".",".",".",".",".",".",".",".","."],[5,".",".",".",".",7,".",".",".",".",".",".",".",".",".",".",".",".","."],[".",".",".",".",".",".",".",".",".",".",".",".",".",".",".",".",".",".","."],[".",".",".",".",".",".",".",".",".",".",".",".",".",".",".",".",".",".","."]],[[".",".",".",".",".",".",".",".",".",".",".",".",".",".",".",".",".",".",".",".",".",".",".",".",".",".",".",".",".",".",".",".",".",".","."],[".",".",".",".",".",".",".",".",".",".",".",".",".",".",".",".",".",".",".",".",".",".",".",".",".",".",".",".",".",".",".",".",".",".","."],[".",".",".",".",".",8,".",8,".",".",".",".",".",".",".",0,8,".",".",".",".",".",".",8,".",8,".",".",".",".",".",".",8,".","."],[8,".",10,".",0,".",0,".",".",".",8,".",10,".",0,".",".",".",8,".",10,".",0,".",0,".",".",8,".",10,".",0,".",0,"."],[".",".",".",".",".",".",".",".",".",".",".",".",".",".",".",".",".",".",".",".",".",".",".",".",".",".",".",".",".",".",".",".",".",".","."]],[[".",".",".",".",".",".",".",".",".",".",".",".",".",".",".",".",".",".",".",".",".",".",".",".",".",".",".",".",".","."],[".",".",".",".",".",".",".",".",".",".",".",".",".",".",".",".",".",".",".",".",".",".",".",".",".",".",".",".",".","."],[".",".",".",".",".",".",".",".",".",".",".",".",".",".",".",".",".",".",".",".",".",".",".",".",".",".",".",".",".","."],[0,".",0,0,0,".",0,".",14,12,0,10,12,14,".",".",0,".",0,0,0,".",0,".",14,12,0,10,12,10],[".",".",".",".",".",".",".",".",".",".",".",".",".",".",".",".",".",".",".",".",".",".",".",".",".",".",".",".",".","."]],[[".",".",".",".",".",".",".",".",".",".",".",".",".",".",".",".",".",".",".",".",".",".",".",".",".",".",".",".",".","."],[".",".",".",".",".",".",".",".",".",".",".",".",".",".",".",".",".",".",".",".",".",".",".",".",".",".",".",".",".","."],[".",".",".",".",".",".",".",".",".",".",".",".",".",".",".",".",".",".",".",".",".",".",".",".",".",".",".",8,7,"."],[8,".",8,8,8,".",8,".",8,8,8,".",8,".",8,7,".",7,7,7,".",10,".",10,10,10,".",".",".",10],[".",".",".",".",".",".",".",".",".",".",".",".",".",".",".",".",".",".",".",".",".",".",".",".",".",".",".",".",".","."]]],"numberofstrings":5,"notes":["FsGb","CsDb","GsAb","CsDb","GsAb"],"capo":0,"stringnotes":["Gb1","Db2","Ab2","Db4","Ab5"],"comments":["Intro Riff For All This For Nothing","In The Middle Solo & Bridge","",""],"timing":[[null,"W","W","W",null,null,"W","W","W","W","W","W","W","W","W",null,"W",null,"W"],[null,"W","W","W",null,"W","W","W","W",null,null,"W",null,"W",null,"W","W","W",null,"W",null,"W",null,"W","W","W","W",null,"W",null,"W",null,"W","W","W"],[null,"W","W","W","W","W",null,"W",null,"W","W","W","W","W","W",null,null,"W",null,"W","W","W",null,"W",null,"W","W","W","W","W","W"],[null,null,"W","W","W","W","W","W",null,"W","W","W","W","W",null,"W","W",null,"W","W","W",null,"W",null,"W","W","W",null,"W","W","W"]],"timingvisible":false,"tabcounter":30,"stave":2,"totalstaves":4,"instrument":"5bass","selectedtuning":"5bass_standard","version":"13"}

Member for

4 years 3 months
Submitted by amongstkc on Sun, 2020-02-02 10:48