Somethin For Nothin (Rhythm Guitar)

Chords

01234567891011121314151617181920212223
E
B
G
D
A
E
B
0 1 2 3 4 5 6 7 8 9 10 11 12 13 14 15 16 17 18 19 20 21 22 23
(/) Slide Up  (\) Slide Down  (h) Hammer On  (p) Pull Off  (b) Bend (r) Release (v) Vibrato

Intro

Bb|-------------------------------------
Gb|-------------------------------------
Db|--7---------------7------------------
Ab|--5--8--7--10-----5--8--10--7--------
Db|-----8--7--10--------8--10--7--------
Ab|-------------------------------------

Pre-Verse

Bb|----------------------------------------------------------------------------------------
Gb|--------------------------------------------------------------------12--12--12--12--12--
Db|--0--2--0--3--2--0-----0--2--0--3--2--0-----0--2--0--3--2--0-----0----------------------
Ab|--0--2--0--3--2--0-----0--2--0--3--2--0-----0--2--0--3--2--0-----0--10--10--10--10--10--
Db|--0--2--0--3--2--0-----0--2--0--3--2--0-----0--2--0--3--2--0-----0----------------------
Ab|----------------------------------------------------------------------------------------



Bb|-----------------------------------------------------------------------7-----------------------------------------
Gb|-----------------------------------------------------------------0-----------0-----------------------------------
Db|--0--2--0--3--2--0-----0--2--0--3--2--0-----0--2--0--3--2--0--------4-----4--------------------------------------
Ab|--0--2--0--3--2--0-----0--2--0--3--2--0-----0--2--0--3--2--0-----------------------------------------------------
Db|--0--2--0--3--2--0-----0--2--0--3--2--0-----0--2--0--3--2--0-----------------------------------------------------
Ab|-----------------------------------------------------------------------------------------------------------------

Verse

Bb|--------------------------------------------------------------------------------
Gb|--------------------------------------------------------------------------------
Db|--------------------------------------------------------------------------------
Ab|--3----0--0--0--0-----3----0--0--0--0-----3----0--0--0--0-----3--0--0--5--0--0--
Db|--3----0--0--0--0-----3----0--0--0--0-----3----0--0--0--0-----3--0--0--5--0--0--
Ab|--------------------------------------------------------------------------------

Pre Chorus

Bb|--------------------------------------
Gb|--------2-----------------5--------5--
Db|-----3--------5--4-----7--------7-----
Ab|--1--------3--------5--------5--------
Db|--------------------------------------
Ab|--------------------------------------

Chorus

Bb|-----------------------------------------------------------------------------------------
Gb|-----------------------7-----------------------------------------------------------5-----
Db|-----------------------7--------------------------5--3--2--------------------------5-----
Ab|-----------------------5-----1--1--1-----1--1--1--------------3--3--3-----3--3--3--3-----
Db|--0--0--0-----0--0--0--------------------------------------------------------------------
Ab|-----------------------------------------------------------------------------------------



Bb|-----------------------
Gb|-----------------------
Db|--5--3--0-----2--3--2--
Ab|--5--3--0-----2--3--2--
Db|--5--3--0-----2--3--2--
Ab|-----------------------

							http://www.guitartabcreator.com
Instruments
{"title":"Somethin For Nothin (Rhythm Guitar)","strings":[[[".",".",".",".",".",".",".",".",".",".","."],[".",".",".",".",".",".",".",".",".",".","."],[7,".",".",".",".",7,".",".",".",".","."],[5,8,7,10,".",5,8,10,7,".","."],[".",8,7,10,".",".",8,10,7,".","."],[".",".",".",".",".",".",".",".",".",".","."]],[[".",".",".",".",".",".",".",".",".",".",".",".",".",".",".",".",".",".",".",".",".",".",".",".",".",".","."],[".",".",".",".",".",".",".",".",".",".",".",".",".",".",".",".",".",".",".",".",".",".",12,12,12,12,12],[0,2,0,3,2,0,".",0,2,0,3,2,0,".",0,2,0,3,2,0,".",0,".",".",".",".","."],[0,2,0,3,2,0,".",0,2,0,3,2,0,".",0,2,0,3,2,0,".",0,10,10,10,10,10],[0,2,0,3,2,0,".",0,2,0,3,2,0,".",0,2,0,3,2,0,".",0,".",".",".",".","."],[".",".",".",".",".",".",".",".",".",".",".",".",".",".",".",".",".",".",".",".",".",".",".",".",".",".","."]],[[".",".",".",".",".",".",".",".",".",".",".",".",".",".",".",".",".",".",".",".",".",".",".",7,".",".",".",".",".",".",".",".",".",".",".",".","."],[".",".",".",".",".",".",".",".",".",".",".",".",".",".",".",".",".",".",".",".",".",0,".",".",".",0,".",".",".",".",".",".",".",".",".",".","."],[0,2,0,3,2,0,".",0,2,0,3,2,0,".",0,2,0,3,2,0,".",".",4,".",4,".",".",".",".",".",".",".",".",".",".",".","."],[0,2,0,3,2,0,".",0,2,0,3,2,0,".",0,2,0,3,2,0,".",".",".",".",".",".",".",".",".",".",".",".",".",".",".",".","."],[0,2,0,3,2,0,".",0,2,0,3,2,0,".",0,2,0,3,2,0,".",".",".",".",".",".",".",".",".",".",".",".",".",".",".",".","."],[".",".",".",".",".",".",".",".",".",".",".",".",".",".",".",".",".",".",".",".",".",".",".",".",".",".",".",".",".",".",".",".",".",".",".",".","."]],[[".",".",".",".",".",".",".",".",".",".",".",".",".",".",".",".",".",".",".",".",".",".",".",".",".",".",".",".",".","."],[".",".",".",".",".",".",".",".",".",".",".",".",".",".",".",".",".",".",".",".",".",".",".",".",".",".",".",".",".","."],[".",".",".",".",".",".",".",".",".",".",".",".",".",".",".",".",".",".",".",".",".",".",".",".",".",".",".",".",".","."],[3,"b",".",0,0,0,0,".",3,"b",".",0,0,0,0,".",3,"b",".",0,0,0,0,".",3,0,0,5,0,0],[3,"b",".",0,0,0,0,".",3,"b",".",0,0,0,0,".",3,"b",".",0,0,0,0,".",3,0,0,5,0,0],[".",".",".",".",".",".",".",".",".",".",".",".",".",".",".",".",".",".",".",".",".",".",".",".",".",".",".",".",".","."]],[[".",".",".",".",".",".",".",".",".",".",".","."],[".",".",2,".",".",".",".",".",5,".",".",5],[".",3,".",".",5,4,".",7,".",".",7,"."],[1,".",".",3,".",".",5,".",".",5,".","."],[".",".",".",".",".",".",".",".",".",".",".","."],[".",".",".",".",".",".",".",".",".",".",".","."]],[[".",".",".",".",".",".",".",".",".",".",".",".",".",".",".",".",".",".",".",".",".",".",".",".",".",".",".",".","."],[".",".",".",".",".",".",".",7,".",".",".",".",".",".",".",".",".",".",".",".",".",".",".",".",".",".",".",5,"."],[".",".",".",".",".",".",".",7,".",".",".",".",".",".",".",".",5,3,2,".",".",".",".",".",".",".",".",5,"."],[".",".",".",".",".",".",".",5,".",1,1,1,".",1,1,1,".",".",".",".",3,3,3,".",3,3,3,3,"."],[0,0,0,".",0,0,0,".",".",".",".",".",".",".",".",".",".",".",".",".",".",".",".",".",".",".",".",".","."],[".",".",".",".",".",".",".",".",".",".",".",".",".",".",".",".",".",".",".",".",".",".",".",".",".",".",".",".","."]],[[".",".",".",".",".",".","."],[".",".",".",".",".",".","."],[5,3,0,".",2,3,2],[5,3,0,".",2,3,2],[5,3,0,".",2,3,2],[".",".",".",".",".",".","."]]],"numberofstrings":6,"notes":["AsBb","FsGb","CsDb","GsAb","CsDb","GsAb","B"],"capo":0,"stringnotes":["Bb3","Gb3","Db3","Ab2","Db2","Ab1"],"comments":["Intro","Pre-Verse","","Verse","Pre Chorus","Chorus",""],"timing":[[null,"W","W","W","W",null,"W","W","W","W"],[null,"W","W","W","W","W","W",null,"W","W","W","W","W","W",null,"W","W","W","W","W","W",null,"W","W","W","W","W","W"],[null,"W","W","W","W","W","W",null,"W","W","W","W","W","W",null,"W","W","W","W","W","W",null,"W","W",null,"W","W","W",null,null,"W","W",null,null,"W","W",null,"W"],[null,"W",null,null,"W","W","W","W",null,"W",null,null,"W","W","W","W",null,"W",null,null,"W","W","W","W",null,"W","W","W","W","W","W"],[null,"W","W","W","W","W","W","W","W","W","W","W","W"],[null,"W","W","W",null,"W","W","W","W","W","W","W",null,"W","W","W","W","W","W","W","W","W","W","W",null,"W","W","W","W","W"],[null,"W","W","W",null,"W","W","W"]],"timingvisible":false,"tabcounter":29,"stave":5,"totalstaves":7,"instrument":"6guitar","selectedtuning":"6_standard","version":"13"}

Member for

4 years 5 months
Submitted by amongstkc on Wed, 2018-11-21 10:12