Someday (Rythym Guitar)

Chords

01234567891011121314151617181920212223
E
B
G
D
A
E
B
0 1 2 3 4 5 6 7 8 9 10 11 12 13 14 15 16 17 18 19 20 21 22 23
(/) Slide Up  (\) Slide Down  (h) Hammer On  (p) Pull Off  (b) Bend (r) Release (v) Vibrato

Intro/Verse

Bb|----------------------------------------------------------------------------------------------------------
Gb|----------------------------------------------------------------------------------------------------------
Db|----------------------------------------------------------------------------------------------------------
Ab|----------------------------------------------------------------------------------------------------------
Db|--12--0--10--12--0--12--0--12--0--10--12--0--13--0--12-----12--0--10--12--0--8--0--12--0--7--0--12--8--5--
Ab|----------------------------------------------------------------------------------------------------------

PreChorus

Bb|------------------------------------------------
Gb|------------------------------------------------
Db|------------------------------------------------
Ab|------------------------------------------------
Db|--12--0--10--12--0--8--0--10--0--7--0--8--7--3--
Ab|------------------------------------------------

Chorus

Bb|----------------------------------------------
Gb|-----------------------------10-----12--------
Db|--0--0--------5--5-----------8------10-----3--
Ab|--0--0--------5--5-----------8------10-----3--
Db|--0--0--------5--5-----------8------10-----3--
Ab|----------------------------------------------

Bridge

Bb|--------------------------------------------------
Gb|--------------------------------------------------
Db|--------------------------------------------------
Ab|--------------------------------------------------
Db|--0--0--0--3--3--3--0--0--0--2--2--2--------------
Ab|--------------------------------------3--3--5--5--



Bb|-----------------------------------------------
Gb|-----------------------------------------------
Db|--0--0--0--3--3--3--0--0--0--2--2--2--------0--
Ab|--0--0--0--3--3--3--0--0--0--2--2--2--------0--
Db|--0--0--0--3--3--3--0--0--0--2--2--2--------0--
Ab|--------------------------------------3--3-----



Bb|-----------------------------------
Gb|-----------------------------------
Db|--0-----3-----0-----2-----------0--
Ab|--0-----3-----0-----2-----------0--
Db|--0-----3-----0-----2-----------0--
Ab|--------------------------3--------

							http://www.guitartabcreator.com
Instruments
{"title":"Someday (Rythym Guitar)","strings":[[[".",".",".",".",".",".",".",".",".",".",".",".",".",".",".",".",".",".",".",".",".",".",".",".",".",".",".",".",".","."],[".",".",".",".",".",".",".",".",".",".",".",".",".",".",".",".",".",".",".",".",".",".",".",".",".",".",".",".",".","."],[".",".",".",".",".",".",".",".",".",".",".",".",".",".",".",".",".",".",".",".",".",".",".",".",".",".",".",".",".","."],[".",".",".",".",".",".",".",".",".",".",".",".",".",".",".",".",".",".",".",".",".",".",".",".",".",".",".",".",".","."],[12,0,10,12,0,12,0,12,0,10,12,0,13,0,12,".",12,0,10,12,0,8,0,12,0,7,0,12,8,5],[".",".",".",".",".",".",".",".",".",".",".",".",".",".",".",".",".",".",".",".",".",".",".",".",".",".",".",".",".","."]],[[".",".",".",".",".",".",".",".",".",".",".",".",".","."],[".",".",".",".",".",".",".",".",".",".",".",".",".","."],[".",".",".",".",".",".",".",".",".",".",".",".",".","."],[".",".",".",".",".",".",".",".",".",".",".",".",".","."],[12,0,10,12,0,8,0,10,0,7,0,8,7,3],[".",".",".",".",".",".",".",".",".",".",".",".",".","."]],[[".",".",".",".",".",".",".",".",".",".",".",".",".","."],[".",".",".",".",".",".",".",".",".",10,".",12,".","."],[0,0,".",".",5,5,".",".",".",8,".",10,".",3],[0,0,".",".",5,5,".",".",".",8,".",10,".",3],[0,0,".",".",5,5,".",".",".",8,".",10,".",3],[".",".",".",".",".",".",".",".",".",".",".",".",".","."]],[[".",".",".",".",".",".",".",".",".",".",".",".",".",".",".","."],[".",".",".",".",".",".",".",".",".",".",".",".",".",".",".","."],[".",".",".",".",".",".",".",".",".",".",".",".",".",".",".","."],[".",".",".",".",".",".",".",".",".",".",".",".",".",".",".","."],[0,0,0,3,3,3,0,0,0,2,2,2,".",".",".","."],[".",".",".",".",".",".",".",".",".",".",".",".",3,3,5,5]],[[".",".",".",".",".",".",".",".",".",".",".",".",".",".","."],[".",".",".",".",".",".",".",".",".",".",".",".",".",".","."],[0,0,0,3,3,3,0,0,0,2,2,2,".",".",0],[0,0,0,3,3,3,0,0,0,2,2,2,".",".",0],[0,0,0,3,3,3,0,0,0,2,2,2,".",".",0],[".",".",".",".",".",".",".",".",".",".",".",".",3,3,"."]],[[".",".",".",".",".",".",".",".",".",".","."],[".",".",".",".",".",".",".",".",".",".","."],[0,".",3,".",0,".",2,".",".",".",0],[0,".",3,".",0,".",2,".",".",".",0],[0,".",3,".",0,".",2,".",".",".",0],[".",".",".",".",".",".",".",".",3,".","."]]],"numberofstrings":6,"notes":["AsBb","FsGb","CsDb","GsAb","CsDb","GsAb","B"],"capo":0,"stringnotes":["Bb2","Gb5","Db7","Ab1","Db6","Ab2"],"comments":["Intro/Verse","PreChorus","Chorus","Bridge","","","Fill 1 *Palm mute open chugs","Fill 2 *Palm mute open triplets"],"timing":[[null,"W","W","W","W","W","W","W","W","W","W","W","W","W","W","W",null,"W","W","W","W","W","W","W","W","W","W","W","W","W","W"],[null,"W","W","W","W","W","W","W","W","W","W","W","W","W","W"],[null,"W","W","W","W","W","W","W","W",null,"W","W","W",null,"W"],[null,"W","W","W","W","W","W","W","W","W","W","W","W","W","W","W","W"],[null,"W","W","W","W","W","W","W","W","W","W","W","W","W","W","W"],[null,"W",null,"W",null,"W",null,"W",null,"W",null,"W"]],"timingvisible":false,"tabcounter":14,"stave":2,"totalstaves":6,"instrument":"6guitar","selectedtuning":"6_standard","version":"13"}

Member for

4 years 5 months
Submitted by amongstkc on Sat, 2017-05-06 13:18