Pusher (Rhythm)

Chords

01234567891011121314151617181920212223
E
B
G
D
A
E
B
0 1 2 3 4 5 6 7 8 9 10 11 12 13 14 15 16 17 18 19 20 21 22 23
(/) Slide Up  (\) Slide Down  (h) Hammer On  (p) Pull Off  (b) Bend (r) Release (v) Vibrato

Intro

Eb|-----------
Bb|--3--------
Gb|--4--------
Db|--4--------
Ab|--2--------
Db|--------0--

Main Riff

Eb|--------------------------------------------------------------------------------
Bb|--------------------------------------------------------------------------------
Gb|--------------------------------------------------------------------------------
Db|--9--9--9-----0--0-----9--9--9-----0--0-----9--9--9-----0--0-----5--5--5--5--5--
Ab|--9--9--9-----0--0-----9--9--9-----0--0-----9--9--9-----0--0-----5--5--5--5--5--
Db|--9--9--9-----0--0-----9--9--9-----0--0-----9--9--9-----0--0-----5--5--5--5--5--

Pre Verse

Eb|-----------------------------------------------
Bb|-----------------------------------------------
Gb|-----------------------------------------------
Db|--4--------------------------------------------
Ab|--4--------------------2--4--2-----5--4-----4--
Db|--4--------------4--5-----------5--------5-----

Verse

Eb|-------------------------------------------------------------------------------------------------------------------------------
Bb|-------------------------------------------------------------------------------------------------------------------------------
Gb|-------------------------------------------------------------------------------------------------------------------------------
Db|-----------12--------11--------9--------------------------14----------12----------11--------------12--------11--------9--------
Ab|----------------------------------------------10--10--10------10--10------10--10---------7--7--7------7--7------7--7-----7--7--
Db|--9--9--9------9--9------9--9-----9--9-----------------------------------------------------------------------------------------

Pre Chorus

Eb|--0-----2-----------------------------------_----------------------------------------------
Bb|--3-----5-----------------------------------_----------------------------------------------
Gb|--2-----4-----------------------------------_----------------------------------------------
Db|--0-----2--------------12--12--12-----------11--11--11-----------9--9--9--------------------
Ab|--0-----2-----9--9--9--------------9--9--9--_----------9--9--9-----------9--9--9--9--9--9--
Db|--0-----2-----9--9--9--------------9--9--9--_----------9--9--9-----------9--9--9-----------



Eb|--0---------------
Bb|--3---------------
Gb|--2---------------
Db|--0-----11-----9--
Ab|--0-----11-----9--
Db|--0-----11-----9--

Chorus

Eb|---------------------------------------------------------------------------------
Bb|---------------------------------------------------------------------------------
Gb|-----------------------------16--------------16--------------16--------------16--
Db|--5-----2-----4------------------------------------------------------------------
Ab|--5-----2-----4-----0--0--0--14-----0--0--0--14-----0--0--0--14-----0--0--0--14--
Db|--5-----2-----4------------------------------------------------------------------



Eb|---------------------------------------
Bb|---------------------------------------
Gb|---------------------------------------
Db|--5--2---------------------------------
Ab|--5--2----------------------4p0--4--5--
Db|--5--2-----4p0--4--5--4--0-------------

Solo/Bridge

Eb|-----------------------------------------------------------
Bb|-----------------------------------------------------------
Gb|-----------------------------7--7--7--7--------------------
Db|--9--9--9--9--4--5--5--5--5--7--7--7--7--5--7--7--7--7-----
Ab|--9--9--9--9--4--5--5--5--5--5--5--5--5--5--7--7--7--7-----
Db|--9--9--9--9--4--5--5--5--5--------------5--7--7--7--7-----



Eb|-----------------------------------------------------------
Bb|-----------------------------------------------------------
Gb|-----------------------------------------------------------
Db|--9--9--9--9--4--5--5--5--5--4--2--2--2--2--2--4--4--4--4--
Ab|--9--9--9--9--4--5--5--5--5--4--2--2--2--2--2--4--4--4--4--
Db|--9--9--9--9--4--5--5--5--5--4--2--2--2--2--2--4--4--4--4--

							http://www.guitartabcreator.com
{"strings":[[[".",".","."],[3,".","."],[4,".","."],[4,".","."],[2,".","."],[".",".",0]],[[".",".",".","_",".",".",".",".",".",".","_",".",".",".",".",".",".","_",".",".",".",".",".",".",".","."],[".",".",".","_",".",".",".",".",".",".","_",".",".",".",".",".",".","_",".",".",".",".",".",".",".","."],[".",".",".","_",".",".",".",".",".",".","_",".",".",".",".",".",".","_",".",".",".",".",".",".",".","."],[9,9,9,"_",0,0,".",9,9,9,"_",0,0,".",9,9,9,"_",0,0,".",5,5,5,5,5],[9,9,9,"_",0,0,".",9,9,9,"_",0,0,".",9,9,9,"_",0,0,".",5,5,5,5,5],[9,9,9,"_",0,0,".",9,9,9,"_",0,0,".",9,9,9,"_",0,0,".",5,5,5,5,5]],[[".",".",".",".",".",".",".",".",".",".",".",".",".",".","."],[".",".",".",".",".",".",".",".",".",".",".",".",".",".","."],[".",".",".",".",".",".",".",".",".",".",".",".",".",".","."],[4,".",".",".",".",".",".",".",".",".",".",".",".",".","."],[4,".",".",".",".",".",".",2,4,2,".",5,4,".",4],[4,".",".",".",".",4,5,".",".",".",5,".",".",5,"."]],[[".",".",".",".",".",".",".",".",".",".",".",".","_","_",".",".",".",".",".",".",".",".",".",".",".",".",".",".",".",".",".",".",".",".",".",".","."],[".",".",".",".",".",".",".",".",".",".",".",".","_","_",".",".",".",".",".",".",".",".",".",".",".",".",".",".",".",".",".",".",".",".",".",".","."],[".",".",".",".",".",".",".",".",".",".",".",".","_","_",".",".",".",".",".",".",".",".",".",".",".",".",".",".",".",".",".",".",".",".",".",".","."],[".",".",".",12,".",".",11,".",".",9,".",".","_","_",".",".",".",14,".",".",12,".",".",11,".",".",".",".",12,".",".",11,".",".",9,".","."],[".",".",".",".",".",".",".",".",".",".",".",".","_","_",10,10,10,".",10,10,".",10,10,".",".",7,7,7,".",7,7,".",7,7,".",7,7],[9,9,9,".",9,9,".",9,9,".",9,9,"_","_",".",".",".",".",".",".",".",".",".",".",".",".",".",".",".",".",".",".",".",".",".",".","."]],[[0,".",2,".",".",".",".",".",".",".",".",".",".","_",".",".",".",".",".",".",".",".",".",".",".",".",".","."],[3,".",5,".",".",".",".",".",".",".",".",".",".","_",".",".",".",".",".",".",".",".",".",".",".",".",".","."],[2,".",4,".",".",".",".",".",".",".",".",".",".","_",".",".",".",".",".",".",".",".",".",".",".",".",".","."],[0,".",2,".",".",".",".",12,12,12,".",".",".",11,11,11,".",".",".",9,9,9,".",".",".",".",".","."],[0,".",2,".",9,9,9,".",".",".",9,9,9,"_",".",".",9,9,9,".",".",".",9,9,9,9,9,9],[0,".",2,".",9,9,9,".",".",".",9,9,9,"_",".",".",9,9,9,".",".",".",9,9,9,".",".","."]],[[0,".",".",".","."],[3,".",".",".","."],[2,".",".",".","."],[0,".",11,".",9],[0,".",11,".",9],[0,".",11,".",9]],[[".",".",".",".",".",".",".",".",".",".",".",".",".",".",".",".",".",".",".",".",".",".",".",".","."],[".",".",".",".",".",".",".",".",".",".",".",".",".",".",".",".",".",".",".",".",".",".",".",".","."],[".",".",".",".",".",".",".",".",".",16,".",".",".",".",16,".",".",".",".",16,".",".",".",".",16],[5,".",2,".",4,".",".",".",".",".",".",".",".",".",".",".",".",".",".",".",".",".",".",".","."],[5,".",2,".",4,".",0,0,0,14,".",0,0,0,14,".",0,0,0,14,".",0,0,0,14],[5,".",2,".",4,".",".",".",".",".",".",".",".",".",".",".",".",".",".",".",".",".",".",".","."]],[[".",".",".",".",".",".",".",".",".",".",".",".",".",".","."],[".",".",".",".",".",".",".",".",".",".",".",".",".",".","."],[".",".",".",".",".",".",".",".",".",".",".",".",".",".","."],[5,2,".",".",".",".",".",".",".",".",".",".",".",".","."],[5,2,".",".",".",".",".",".",".",".",4,"p",0,4,5],[5,2,".",4,"p",0,4,5,4,0,".",".",".",".","."]],[[".",".",".",".",".",".",".",".",".",".",".",".",".","_","_","_","_","_","."],[".",".",".",".",".",".",".",".",".",".",".",".",".","_","_","_","_","_","."],[".",".",".",".",".",".",".",".",".",7,7,7,7,"_","_","_","_","_","."],[9,9,9,9,4,5,5,5,5,7,7,7,7,5,7,7,7,7,"."],[9,9,9,9,4,5,5,5,5,5,5,5,5,5,7,7,7,7,"."],[9,9,9,9,4,5,5,5,5,".",".",".",".",5,7,7,7,7,"."]],[[".",".",".",".",".",".",".",".",".",".",".",".",".",".",".",".",".",".","."],[".",".",".",".",".",".",".",".",".",".",".",".",".",".",".",".",".",".","."],[".",".",".",".",".",".",".",".",".",".",".",".",".",".",".",".",".",".","."],[9,9,9,9,4,5,5,5,5,4,2,2,2,2,2,4,4,4,4],[9,9,9,9,4,5,5,5,5,4,2,2,2,2,2,4,4,4,4],[9,9,9,9,4,5,5,5,5,4,2,2,2,2,2,4,4,4,4]]],"numberofstrings":6,"notes":["DsEb","AsBb","FsGb","CsDb","GsAb","CsDb","B"],"capo":0,"stringnotes":["Eb4","Bb3","Gb3","Db3","Ab2","Db2"],"comments":["Intro","Main Riff","Pre Verse","Verse","Pre Chorus","","Chorus","","Solo/Bridge",""],"timing":[[null,"W",null,"W"],[null,"W","W","W","W","W","W",null,"W","W","W","W","W","W",null,"W","W","W","W","W","W",null,"W","W","W","W","W"],[null,"W",null,null,null,null,"W","W","W","W","W","W","W","W","W","W"],[null,"W","W","W","W","W","W","W","W","W","W","W","W",null,null,null,null,"W","W","W","W","W","W","W","W",null,"W","W","W","W","W","W","W","W","W","W","W","W"],[null,"W",null,"W",null,"W","W","W","W","W","W","W","W","W","W","W","W","W","W","W","W","W","W","W","W","W","W","W","W"],[null,"W",null,"W",null,"W"],[null,"W",null,"W",null,"W",null,"W","W","W","W","W","W","W","W","W",null,"W","W","W","W",null,"W","W","W","W"],[null,"W","W",null,"W","W","W","W","W","W","W","W",null,"W","W","W"],[null,"W","W","W","W","W","W","W","W","W","W","W","W","W",null,"W","W","W","W",null,null,null,null,null,"W"],[null,"W","W","W","W",null,"W","W","W","W","W","W","W","W","W","W","W","W","W","W"]],"timingvisible":false,"tabcounter":19,"stave":9,"totalstaves":10,"instrument":"6guitar","selectedtuning":"6_standard","version":"13"}

Member for

4 years 5 months
Submitted by amongstkc on Sun, 2020-04-26 09:20