Parker (Rhythm Guitar)

Chords

01234567891011121314151617181920212223
E
B
G
D
A
E
B
0 1 2 3 4 5 6 7 8 9 10 11 12 13 14 15 16 17 18 19 20 21 22 23
(/) Slide Up  (\) Slide Down  (h) Hammer On  (p) Pull Off  (b) Bend (r) Release (v) Vibrato

Intro

Bb|-----------------------------------------------------------------------------
Gb|-----------------------------------------------------------------------------
Db|-----------------------------------------------------------------------------
Ab|--------7--7--7--7--------5--5--5--5--------7--7--7--7--------5--5--5--5-----
Db|--4--4--------------4--4--------------0--0--------------0--0-----------------
Ab|-----------------------------------------------------------------------------



Bb|------------------------------------------------------------------------------
Gb|------------------------------------------------------------------------------
Db|------------------------------------------------------------------------------
Ab|--------7--7--7--7--------5--5--5--5--------2--2--4--4--5--5--4--4--2--2h4p2--
Db|--7--7--------------7--7--------------2--2------------------------------------
Ab|------------------------------------------------------------------------------

Verse/Intro Chords

Bb|-----------------------
Gb|-----------------------
Db|--4-----0-----7-----2--
Ab|--4-----0-----7-----2--
Db|--4-----0-----7-----2--
Ab|-----------------------

Chorus

Bb|--------------------------------------------------------------------------------------
Gb|--------9-11-----------9-11--------------------------9-11-----------9-11--------------
Db|--0--0-----------0--0-----------9--7--9--7-----0--0-----------0--0-----------9--7--6--
Ab|--0--0--7-9------0--0--7-9------7--7--7--7-----0--0--7-9------0--0--7-9------7--7--2--
Db|--0--0-----------0--0-----------7--7--7--7-----0--0-----------0--0-----------7--7--2--
Ab|--------------------------------------------------------------------------------------

Post Chorus

Bb|-----------------------------------------------------------------------------------------------------
Gb|-----------------------------------------------------------------------------------------------------
Db|-----------------------------------------------------------------------------------------------------
Ab|--5--5--5--5--5--5--5--5--5--4--4--4--4--4--4--4--4--2--2--2--2--2--2--2--2--0--0--0--0--x--x--x--x--
Db|-----------------------------------------------------------------------------------------------------
Ab|-----------------------------------------------------------------------------------------------------

Bridge

Bb|-----------------------------------------------------------
Gb|-----------------------------------------------------------
Db|--4--2--4--2--4--2--7--6--4--------------------------------
Ab|--4--2--4--2--4--2--7--6--4--5--4--5--4--5--4--5--4--2-----
Db|--4--2--4--2--4--2--7--6--4--7--6--7--6--7--6--7--6--4-----
Ab|-----------------------------5--4--5--4--5--4--5--4--2-----

							http://www.guitartabcreator.com
Instruments
{"title":"Parker (Rhythm Guitar)","strings":[[[".",".",".",".",".",".",".",".",".",".",".",".",".",".",".",".",".",".",".",".",".",".",".",".","."],[".",".",".",".",".",".",".",".",".",".",".",".",".",".",".",".",".",".",".",".",".",".",".",".","."],[".",".",".",".",".",".",".",".",".",".",".",".",".",".",".",".",".",".",".",".",".",".",".",".","."],[".",".",7,7,7,7,".",".",5,5,5,5,".",".",7,7,7,7,".",".",5,5,5,5,"."],[4,4,".",".",".",".",4,4,".",".",".",".",0,0,".",".",".",".",0,0,".",".",".",".","."],[".",".",".",".",".",".",".",".",".",".",".",".",".",".",".",".",".",".",".",".",".",".",".",".","."]],[[".",".",".",".",".",".",".",".",".",".",".",".",".",".",".",".",".",".",".",".",".",".",".",".",".",".",".","."],[".",".",".",".",".",".",".",".",".",".",".",".",".",".",".",".",".",".",".",".",".",".",".",".",".",".",".","."],[".",".",".",".",".",".",".",".",".",".",".",".",".",".",".",".",".",".",".",".",".",".",".",".",".",".",".","."],[".",".",7,7,7,7,".",".",5,5,5,5,".",".",2,2,4,4,5,5,4,4,2,2,"h",4,"p",2],[7,7,".",".",".",".",7,7,".",".",".",".",2,2,".",".",".",".",".",".",".",".",".",".",".",".",".","."],[".",".",".",".",".",".",".",".",".",".",".",".",".",".",".",".",".",".",".",".",".",".",".",".",".",".",".","."]],[[".",".",".",".",".",".","."],[".",".",".",".",".",".","."],[4,".",0,".",7,".",2],[4,".",0,".",7,".",2],[4,".",0,".",7,".",2],[".",".",".",".",".",".","."]],[[".",".",".",".",".",".",".",".",".",".",".",".",".",".",".",".",".",".",".",".",".",".",".",".",".",".",".",".",".",".",".","."],[".",".",9,"/",11,".",".",".",9,"/",11,".",".",".",".",".",".",".",".",9,"/",11,".",".",".",9,"/",11,".",".",".","."],[0,0,".",".",".",".",0,0,".",".",".",".",9,7,9,7,".",0,0,".",".",".",".",0,0,".",".",".",".",9,7,6],[0,0,7,"/",9,".",0,0,7,"/",9,".",7,7,7,7,".",0,0,7,"/",9,".",0,0,7,"/",9,".",7,7,2],[0,0,".",".",".",".",0,0,".",".",".",".",7,7,7,7,".",0,0,".",".",".",".",0,0,".",".",".",".",7,7,2],[".",".",".",".",".",".",".",".",".",".",".",".",".",".",".",".",".",".",".",".",".",".",".",".",".",".",".",".",".",".",".","."]],[[".",".",".",".",".",".",".",".",".",".",".",".",".",".",".",".",".",".",".",".",".",".",".",".",".",".",".",".",".",".",".",".","."],[".",".",".",".",".",".",".",".",".",".",".",".",".",".",".",".",".",".",".",".",".",".",".",".",".",".",".",".",".",".",".",".","."],[".",".",".",".",".",".",".",".",".",".",".",".",".",".",".",".",".",".",".",".",".",".",".",".",".",".",".",".",".",".",".",".","."],[5,5,5,5,5,5,5,5,5,4,4,4,4,4,4,4,4,2,2,2,2,2,2,2,2,0,0,0,0,"x","x","x","x"],[".",".",".",".",".",".",".",".",".",".",".",".",".",".",".",".",".",".",".",".",".",".",".",".",".",".",".",".",".",".",".",".","."],[".",".",".",".",".",".",".",".",".",".",".",".",".",".",".",".",".",".",".",".",".",".",".",".",".",".",".",".",".",".",".",".","."]],[[".",".",".",".",".",".",".",".",".",".",".",".",".",".",".",".",".",".","."],[".",".",".",".",".",".",".",".",".",".",".",".",".",".",".",".",".",".","."],[4,2,4,2,4,2,7,6,4,".",".",".",".",".",".",".",".",".","."],[4,2,4,2,4,2,7,6,4,5,4,5,4,5,4,5,4,2,"."],[4,2,4,2,4,2,7,6,4,7,6,7,6,7,6,7,6,4,"."],[".",".",".",".",".",".",".",".",".",5,4,5,4,5,4,5,4,2,"."]]],"numberofstrings":6,"notes":["AsBb","FsGb","CsDb","GsAb","CsDb","GsAb","B"],"capo":0,"stringnotes":["Bb1","Gb6","Db4","Ab4","Db1","Ab5"],"comments":["Intro","","Verse/Intro Chords","Chorus","Post Chorus","Bridge"],"timing":[[null,"W","W","W","W","W","W","W","W","W","W","W","W","W","W","W","W","W","W","W","W","W","W","W","W"],[null,"W","W","W","W","W","W","W","W","W","W","W","W","W","W","W","W","W","W","W","W","W","W","W","W","W","W",null,"W"],[null,"W",null,"W",null,null,"W","W"],[null,"W","W","W",null,"W",null,"W","W","W",null,"W",null,"W","W",null,null,null,"W","W","W",null,"W",null,"W","W","W",null,"W",null,"W","W","W"],[null,"W","W","W","W","W","W","W","W","W","W","W","W","W","W","W","W","W","W","W","W","W","W","W","W","W","W","W","W","W"],[null,"W","W","W","W","W","W","W","W","W","W","W","W","W","W","W","W","W","W","W"]],"timingvisible":false,"tabcounter":32,"stave":3,"totalstaves":6,"instrument":"6guitar","selectedtuning":"6_standard","version":"13"}

Member for

4 years 5 months
Submitted by amongstkc on Wed, 2019-01-30 10:31