Kitty Cat (Rhythm)

Chords

01234567891011121314151617181920212223
E
B
G
D
A
E
B
0 1 2 3 4 5 6 7 8 9 10 11 12 13 14 15 16 17 18 19 20 21 22 23
(/) Slide Up  (\) Slide Down  (h) Hammer On  (p) Pull Off  (b) Bend (r) Release (v) Vibrato

Intro

Eb|--------------------------------------------------------------------------------------------------------------
Bb|--------------------------------------------------------------------------------------------------------------
Gb|--------------------------------------------------------------------------------------------------------------
Db|------------9--9------------9--9----------------7--7---------------7--7-----------------7--7------------7--7--
Ab|--------------------------------------------------------------------------------------------------------------
Db|--9p0--7h9--------9p0--7h9-----------5p0--5--5--------5p0--5--5-----------7p0--5h7--------7p0--5h7--------



Eb|----------------------------------------------------------------------------------------------------------------
Bb|----------------------------------------------------------------------------------------------------------------
Gb|----------------------------------------------------------------------------------------------------------------
Db|------------9--9------------9--9------------------9--9---------------9--9----------------7--7-------------7--7--
Ab|----------------------------------------------------------------------------------------------------------------
Db|--9p0--7h9--------9p0--7h9--------------9p0--7h9-----------9p0--7h9-----------5p0--5--5--------5p0--5--5--------



Eb|-------------------------------------------------------------------------
Bb|-------------------------------------------------------------------------
Gb|-------------------------------------------------------------------------
Db|------------7--7------------7--7----------------7--7-------------12--11--
Ab|-----------------------------------------------------------------0---0---
Db|--7p0--5h7--------7p0--5h7-----------5p0--5--5--------5p0--5--5----------

Chorus

Eb|-------------------------------------------------------------------------------------
Bb|-------------------------------------------------------------------------------------
Gb|-------------------------------------------------------------------------------------
Db|--9--9-----7--8--9--9-----5--4--------------9--9-----12--11--9--9-----5--4-----------
Ab|--9--9-----7--8--9--9-----5--4--------------9--9-----12--11--9--9-----5--4-----------
Db|--9--9-----7--8--9--9-----5--4--4--5--7-----9--9-----12--11--9--9-----5--4--4b5r4p2--

Verse

Eb|------------------------------------------------------------------------------------------------------------------------
Bb|------------------------------------------------------------------------------------------------------------------------
Gb|------------------------------------------------------------------------------------------------------------------------
Db|--7-9--------------10-9--------------7-9--------------5-4--------------7-9--------------10-9-----------9-----5-----7--
Ab|--7-9--------------10-9--------------7-9--------------5-4--------------7-9--------------10-9-----------9-----5-----7--
Db|--7-9--9--9--9-----10-9--9--9--9-----7-9--9--9--9-----5-4--4--4--4-----7-9--9--9--9-----10-9--9--9--9--9-----5-----7--

Pre-Chorus

Eb|--------------------------------------
Bb|--------------------------------------
Gb|--------------------------------------
Db|--2-----5-----------------------------
Ab|--2-----5-----------------5-----------
Db|--2-----5--------0--2--3-----0--2--3--

Bridge

Eb|--------------------------------------------------------------------------------------------------------
Bb|--------------------------------------------------------------------------------------------------------
Gb|--------------------------------------------------------------------------------------------------------
Db|--------------------------------------------------------------------------------------------------------
Ab|--2--2--2--2--2--2--0--0--5--5--5--5--5--5--0--0--2--2--2--2--2--2--2--0--0--4--4--4--4--4--4--0--0-----
Db|--------------------------------------------------------------------------------------------------------



Eb|-----------------------------------------------------------------------------------------------------
Bb|-----------------------------------------------------------------------------------------------------
Gb|-----------------------------------------------------------------------------------------------------
Db|-----------------------------------------------------------------------------------------------------
Ab|--2--2--2--2--2--2--0--0--5--5--5--5--5--5--0--0--7--7--7--7--7--7--7--0--0--8--8--8--8--7--7--0--0--
Db|-----------------------------------------------------------------------------------------------------

Bridge Part 2

Eb|-----------------------------------------------------------------------
Bb|-----------------------------------------------------------------------
Gb|-----------------------------------------------------------------------
Db|--7--9--7--9--------7--9--7--9--------------7--9--7--9-----3--2--0--9--
Ab|--7--9--7--9--------7--9--7--9--------------7--9--7--9-----3--2--0--9--
Db|--7--9--7--9--------7--9--7--9--2b3r2p0-----7--9--7--9-----3--2--0--9--

							http://www.guitartabcreator.com
{"strings":[[[".",".",".",".",".",".",".",".",".",".",".",".",".",".",".",".",".",".",".",".",".",".","_",".","_",".",".",".","_","_","_","_","_",".",".",".",".",".",".",".",".",".",".",".",".",".",".","."],[".",".",".",".",".",".",".",".",".",".",".",".",".",".",".",".",".",".",".",".",".",".","_",".","_",".",".",".","_","_","_","_","_",".",".",".",".",".",".",".",".",".",".",".",".",".",".","."],[".",".",".",".",".",".",".",".",".",".",".",".",".",".",".",".",".",".",".",".",".",".","_",".","_",".",".",".","_","_","_","_","_",".",".",".",".",".",".",".",".",".",".",".",".",".",".","."],[".",".",".",".",".",".",9,9,".",".",".",".",".",".",9,9,".",".",".",".",".",".",7,7,"_",".",".",".","_",7,7,"_","_",".",".",".",".",".",7,7,".",".",".",".",".",".",7,7],[".",".",".",".",".",".",".",".",".",".",".",".",".",".",".",".",".",".",".",".",".",".","_",".","_",".",".",".","_","_","_","_","_",".",".",".",".",".",".",".",".",".",".",".",".",".",".","."],[9,"p",0,7,"h",9,".",".",9,"p",0,7,"h",9,".",".",".",5,"p",0,5,5,"_",".",5,"p",0,5,5,"_","_","_",7,"p",0,5,"h",7,".",".",7,"p",0,5,"h",7,".","."]],[[".",".",".",".",".",".",".",".",".",".",".",".",".",".",".",".",".",".",".",".",".",".",".",".",".",".",".",".",".",".",".",".",".",".",".",".",".",".",".",".",".",".",".",".",".",".",".",".",".","."],[".",".",".",".",".",".",".",".",".",".",".",".",".",".",".",".",".",".",".",".",".",".",".",".",".",".",".",".",".",".",".",".",".",".",".",".",".",".",".",".",".",".",".",".",".",".",".",".",".","."],[".",".",".",".",".",".",".",".",".",".",".",".",".",".",".",".",".",".",".",".",".",".",".",".",".",".",".",".",".",".",".",".",".",".",".",".",".",".",".",".",".",".",".",".",".",".",".",".",".","."],[".",".",".",".",".",".",9,9,".",".",".",".",".",".",9,9,".",".",".",".",".",".",".",".",9,9,".",".",".",".",".",".",".",9,9,".",".",".",".",".",".",7,7,".",".",".",".",".",7,7],[".",".",".",".",".",".",".",".",".",".",".",".",".",".",".",".",".",".",".",".",".",".",".",".",".",".",".",".",".",".",".",".",".",".",".",".",".",".",".",".",".",".",".",".",".",".",".",".",".","."],[9,"p",0,7,"h",9,".",".",9,"p",0,7,"h",9,".",".",".",".",9,"p",0,7,"h",9,".",".",".",9,"p",0,7,"h",9,".",".",".",5,"p",0,5,5,".",".",5,"p",0,5,5,".","."]],[[".",".",".",".",".",".",".",".",".",".",".",".",".",".","_",".","_",".",".",".",".",".",".",".",".",".",".",".",".",".","."],[".",".",".",".",".",".",".",".",".",".",".",".",".",".","_",".","_",".",".",".",".",".",".",".",".",".",".",".",".",".","."],[".",".",".",".",".",".",".",".",".",".",".",".",".",".","_",".","_",".",".",".",".",".",".",".",".",".",".",".",".",".","."],[".",".",".",".",".",".",7,7,".",".",".",".",".",".",7,7,"_",".",".",".",".",".",7,7,".",".",".",".",".",12,11],[".",".",".",".",".",".",".",".",".",".",".",".",".",".","_",".","_",".",".",".",".",".",".",".",".",".",".",".",".",0,0],[7,"p",0,5,"h",7,".",".",7,"p",0,5,"h",7,"_",".","_",5,"p",0,5,5,".",".",5,"p",0,5,5,".","."]],[[".",".",".",".",".",".",".",".",".",".",".",".",".",".",".",".",".",".",".",".",".","_",".",".",".",".",".",".",".",".","."],[".",".",".",".",".",".",".",".",".",".",".",".",".",".",".",".",".",".",".",".",".","_",".",".",".",".",".",".",".",".","."],[".",".",".",".",".",".",".",".",".",".",".",".",".",".",".",".",".",".",".",".",".","_",".",".",".",".",".",".",".",".","."],[9,9,".",7,8,9,9,".",5,4,".",".",".",".",9,9,".",12,11,9,9,"_",5,4,".",".",".",".",".",".","."],[9,9,".",7,8,9,9,".",5,4,".",".",".",".",9,9,".",12,11,9,9,"_",5,4,".",".",".",".",".",".","."],[9,9,".",7,8,9,9,".",5,4,4,5,7,".",9,9,".",12,11,9,9,"_",5,4,4,"b",5,"r",4,"p",2]],[[".",".",".",".",".",".",".",".",".",".",".",".",".",".",".",".",".",".",".",".","_","_",".","_","_","_",".",".",".",".",".",".",".",".",".",".",".",".",".",".",".",".",".",".",".","."],[".",".",".",".",".",".",".",".",".",".",".",".",".",".",".",".",".",".",".",".","_","_",".","_","_","_",".",".",".",".",".",".",".",".",".",".",".",".",".",".",".",".",".",".",".","."],[".",".",".",".",".",".",".",".",".",".",".",".",".",".",".",".",".",".",".",".","_","_",".","_","_","_",".",".",".",".",".",".",".",".",".",".",".",".",".",".",".",".",".",".",".","."],[7,"h",9,".",".",".",".",10,"p",9,".",".",".",".",7,"h",9,".",".",".","_",5,"p",4,"_","_",".",".",7,"h",9,".",".",".",".",10,"p",9,".",".",".",9,".",5,".",7],[7,"h",9,".",".",".",".",10,"p",9,".",".",".",".",7,"h",9,".",".",".","_",5,"p",4,"_","_",".",".",7,"h",9,".",".",".",".",10,"p",9,".",".",".",9,".",5,".",7],[7,"h",9,9,9,9,".",10,"p",9,9,9,9,".",7,"h",9,9,9,9,"_",5,"p",4,4,4,4,".",7,"h",9,9,9,9,".",10,"p",9,9,9,9,9,".",5,".",7]],[[".",".",".",".",".",".",".",".",".",".",".","."],[".",".",".",".",".",".",".",".",".",".",".","."],[".",".",".",".",".",".",".",".",".",".",".","."],[2,".",5,".",".",".",".",".",".",".",".","."],[2,".",5,".",".",".",".",".",5,".",".","."],[2,".",5,".",".",0,2,3,".",0,2,3]],[[".",".",".",".",".",".",".",".",".",".",".",".",".",".",".",".",".",".",".",".",".",".",".",".",".",".",".",".",".",".",".",".",".","."],[".",".",".",".",".",".",".",".",".",".",".",".",".",".",".",".",".",".",".",".",".",".",".",".",".",".",".",".",".",".",".",".",".","."],[".",".",".",".",".",".",".",".",".",".",".",".",".",".",".",".",".",".",".",".",".",".",".",".",".",".",".",".",".",".",".",".",".","."],[".",".",".",".",".",".",".",".",".",".",".",".",".",".",".",".",".",".",".",".",".",".",".",".",".",".",".",".",".",".",".",".",".","."],[2,2,2,2,2,2,0,0,5,5,5,5,5,5,0,0,2,2,2,2,2,2,2,0,0,4,4,4,4,4,4,0,0,"."],[".",".",".",".",".",".",".",".",".",".",".",".",".",".",".",".",".",".",".",".",".",".",".",".",".",".",".",".",".",".",".",".",".","."]],[[".",".",".",".",".",".",".",".",".",".",".",".",".",".",".",".",".",".",".",".",".",".",".",".",".",".",".",".",".",".",".",".","."],[".",".",".",".",".",".",".",".",".",".",".",".",".",".",".",".",".",".",".",".",".",".",".",".",".",".",".",".",".",".",".",".","."],[".",".",".",".",".",".",".",".",".",".",".",".",".",".",".",".",".",".",".",".",".",".",".",".",".",".",".",".",".",".",".",".","."],[".",".",".",".",".",".",".",".",".",".",".",".",".",".",".",".",".",".",".",".",".",".",".",".",".",".",".",".",".",".",".",".","."],[2,2,2,2,2,2,0,0,5,5,5,5,5,5,0,0,7,7,7,7,7,7,7,0,0,8,8,8,8,7,7,0,0],[".",".",".",".",".",".",".",".",".",".",".",".",".",".",".",".",".",".",".",".",".",".",".",".",".",".",".",".",".",".",".",".","."]],[[".",".",".",".",".",".",".",".",".",".",".",".",".",".",".",".",".",".",".",".",".",".",".",".",".",".","."],[".",".",".",".",".",".",".",".",".",".",".",".",".",".",".",".",".",".",".",".",".",".",".",".",".",".","."],[".",".",".",".",".",".",".",".",".",".",".",".",".",".",".",".",".",".",".",".",".",".",".",".",".",".","."],[7,9,7,9,".",".",7,9,7,9,".",".",".",".",".",".",".",".",7,9,7,9,".",3,2,0,9],[7,9,7,9,".",".",7,9,7,9,".",".",".",".",".",".",".",".",7,9,7,9,".",3,2,0,9],[7,9,7,9,".",".",7,9,7,9,2,"b",3,"r",2,"p",0,".",7,9,7,9,".",3,2,0,9]]],"numberofstrings":6,"notes":["DsEb","AsBb","FsGb","CsDb","GsAb","CsDb","B"],"capo":0,"stringnotes":["Eb4","Bb3","Gb3","Db3","Ab2","Db3"],"comments":["Intro","","","Chorus","Verse","Pre-Chorus","Bridge","","Bridge Part 2"],"timing":[[null,"W",null,"W","W",null,"W","W","W","W",null,"W","W",null,"W","W","W",null,"W",null,"W","W",null,"W","W","W","W",null,"W","W",null,"W","W","W","W","W","W","W","W","W","W","W",null,"W","W",null,"W","W","W"],[null,"W",null,"W","W",null,"W","W","W","W",null,"W","W",null,"W","W","W",null,null,"W",null,"W","W",null,"W","W","W",null,"W",null,"W","W",null,"W","W","W",null,"W",null,"W","W","W","W","W","W",null,"W","W","W","W","W"],[null,"W",null,"W","W",null,"W","W","W","W",null,"W","W",null,"W","W","W","W","W",null,"W","W","W","W","W","W",null,"W","W","W","W","W"],[null,"W","W",null,"W","W","W","W",null,"W","W","W","W","W",null,"W","W",null,"W","W","W","W",null,"W","W","W",null,"W","W","W",null,"W"],[null,"W",null,"W","W","W","W",null,"W",null,"W","W","W","W",null,"W",null,"W","W","W","W","W",null,"W","W",null,"W","W",null,"W",null,"W","W","W","W",null,"W",null,"W","W","W","W","W",null,"W",null,"W"],[null,"W",null,"W",null,null,"W","W","W","W","W","W","W"],[null,"W","W","W","W","W","W","W","W","W","W","W","W","W","W","W","W","W","W","W","W","W","W","W","W","W","W","W","W","W","W","W","W","W"],[null,"W","W","W","W","W","W","W","W","W","W","W","W","W","W","W","W","W","W","W","W","W","W","W","W","W","W","W","W","W","W","W","W","W"],[null,"W","W","W","W",null,null,"W","W","W","W","W",null,"W","W","W",null,"W",null,"W","W","W","W",null,"W","W","W","W"]],"timingvisible":false,"tabcounter":27,"stave":8,"totalstaves":9,"instrument":"6guitar","selectedtuning":"6_standard","version":"13"}

Member for

4 years 5 months
Submitted by amongstkc on Sun, 2020-04-26 09:56