Fish Tunes

Chords

01234567891011121314151617181920212223
E
B
G
D
A
E
B
0 1 2 3 4 5 6 7 8 9 10 11 12 13 14 15 16 17 18 19 20 21 22 23
(/) Slide Up  (\) Slide Down  (h) Hammer On  (p) Pull Off  (b) Bend (r) Release (v) Vibrato

Intro Verse

Bb|--------------------------------------------------------------------------
Gb|--------------------------------------------------------------------------
Db|--------------------------------------------------------------------------
Ab|--------5--8--5-----------5--8--5-----------3--7--3-----------3--7--3-----
Db|--5--8-----------8--5--8-----------8--3--7-----------7--3--7-----------7--
Ab|--------------------------------------------------------------------------

Pre Chorus

Bb|--------------------------------------------------------------------------------------------
Gb|--------------------------------------------------------------------------------------------
Db|--------------------------------------------------------------------------------------------
Ab|--------------------------------------------------------------------------------------------
Db|--1--0--0--0--1--0--0--0--1--0--0--0--1--1--1-----1--0--0--0--1--0--0--0--1--0--0--1--1--1--
Ab|--------------------------------------------------------------------------------------------



Bb|--------------------------------------------------------------------------------------------------
Gb|--------------------------------------------------------------------------------------------------
Db|--------------------------------------------------------------------------------------------------
Ab|--------------------------------------------------------------------------------------------------
Db|--1--0--0--0--1--0--0--0--1--0--0--0--1--1--1-----1--0--0--0--1--0--0--0--1--0--0--3p0--5p0--7p0--
Ab|--------------------------------------------------------------------------------------------------

Chorus Chords

Bb|-----------------------------------------------------------------------------------------------
Gb|-----------------------------------------------------------------------------------------------
Db|--8-----3-----5-----1--------8-----3-----1--------8-----3-----5-----1--------8-----3-----1-----
Ab|--8-----3-----5-----1--------8-----3-----1--------8-----3-----5-----1--------8-----3-----1-----
Db|--8-----3-----5-----1--------8-----3-----1--------8-----3-----5-----1--------8-----3-----1-----
Ab|-----------------------------------------------------------------------------------------------



Bb|---------------------------------
Gb|---------------------------------
Db|---------------------------------
Ab|---------------------------------
Db|--5-----8--------5-----8-----10--
Ab|--3-----6--------3-----6-----8---

							http://www.guitartabcreator.com
Instruments
{"title":"Fish Tunes","strings":[[[".",".",".",".",".",".",".",".",".",".",".",".",".",".",".",".",".",".",".",".",".",".",".","."],[".",".",".",".",".",".",".",".",".",".",".",".",".",".",".",".",".",".",".",".",".",".",".","."],[".",".",".",".",".",".",".",".",".",".",".",".",".",".",".",".",".",".",".",".",".",".",".","."],[".",".",5,8,5,".",".",".",5,8,5,".",".",".",3,7,3,".",".",".",3,7,3,"."],[5,8,".",".",".",8,5,8,".",".",".",8,3,7,".",".",".",7,3,7,".",".",".",7],[".",".",".",".",".",".",".",".",".",".",".",".",".",".",".",".",".",".",".",".",".",".",".","."]],[[".",".",".",".",".",".",".",".",".",".",".",".",".",".",".",".",".",".",".",".",".",".",".",".",".",".",".",".",".","."],[".",".",".",".",".",".",".",".",".",".",".",".",".",".",".",".",".",".",".",".",".",".",".",".",".",".",".",".",".","."],[".",".",".",".",".",".",".",".",".",".",".",".",".",".",".",".",".",".",".",".",".",".",".",".",".",".",".",".",".","."],[".",".",".",".",".",".",".",".",".",".",".",".",".",".",".",".",".",".",".",".",".",".",".",".",".",".",".",".",".","."],[1,0,0,0,1,0,0,0,1,0,0,0,1,1,1,".",1,0,0,0,1,0,0,0,1,0,0,1,1,1],[".",".",".",".",".",".",".",".",".",".",".",".",".",".",".",".",".",".",".",".",".",".",".",".",".",".",".",".",".","."]],[[".",".",".",".",".",".",".",".",".",".",".",".",".",".",".",".",".",".",".",".",".",".",".",".",".",".",".",".",".",".",".",".",".",".",".","."],[".",".",".",".",".",".",".",".",".",".",".",".",".",".",".",".",".",".",".",".",".",".",".",".",".",".",".",".",".",".",".",".",".",".",".","."],[".",".",".",".",".",".",".",".",".",".",".",".",".",".",".",".",".",".",".",".",".",".",".",".",".",".",".",".",".",".",".",".",".",".",".","."],[".",".",".",".",".",".",".",".",".",".",".",".",".",".",".",".",".",".",".",".",".",".",".",".",".",".",".",".",".",".",".",".",".",".",".","."],[1,0,0,0,1,0,0,0,1,0,0,0,1,1,1,".",1,0,0,0,1,0,0,0,1,0,0,3,"p",0,5,"p",0,7,"p",0],[".",".",".",".",".",".",".",".",".",".",".",".",".",".",".",".",".",".",".",".",".",".",".",".",".",".",".",".",".",".",".",".",".",".",".","."]],[[".",".",".",".",".",".",".",".",".",".",".",".",".",".",".",".",".",".",".",".",".",".",".",".",".",".",".",".",".",".","."],[".",".",".",".",".",".",".",".",".",".",".",".",".",".",".",".",".",".",".",".",".",".",".",".",".",".",".",".",".",".","."],[8,".",3,".",5,".",1,".",".",8,".",3,".",1,".",".",8,".",3,".",5,".",1,".",".",8,".",3,".",1,"."],[8,".",3,".",5,".",1,".",".",8,".",3,".",1,".",".",8,".",3,".",5,".",1,".",".",8,".",3,".",1,"."],[8,".",3,".",5,".",1,".",".",8,".",3,".",1,".",".",8,".",3,".",5,".",1,".",".",8,".",3,".",1,"."],[".",".",".",".",".",".",".",".",".",".",".",".",".",".",".",".",".",".",".",".",".",".",".",".",".",".",".",".",".",".","."]],[[".",".",".",".",".",".",".",".",".","."],[".",".",".",".",".",".",".",".",".","."],[".",".",".",".",".",".",".",".",".","."],[".",".",".",".",".",".",".",".",".","."],[5,".",8,".",".",5,".",8,".",10],[3,".",6,".",".",3,".",6,".",8]]],"numberofstrings":6,"notes":["AsBb","FsGb","CsDb","GsAb","CsDb","GsAb","B"],"capo":0,"stringnotes":["Bb0","Gb2","Db1","Ab3","Db3","Ab1"],"comments":["Intro Verse","Pre Chorus","","Chorus Chords",""],"timing":[[null,"W","W","W","W","W","W","W","W","W","W","W","W","W","W","W","W","W","W","W","W","W","W","W","W"],[null,"W","W","W","W","W","W","W","W","W","W","W","W","W","W","W",null,"W","W","W","W","W","W","W","W","W","W","W","W","W","W"],[null,"W","W","W","W","W","W","W","W","W","W","W","W","W","W","W",null,"W","W","W","W","W","W","W","W","W","W","W","W",null,"W","W",null,"W","W",null,"W"],[null,"W","W","W",null,"W",null,"W",null,null,"W",null,null,"W","W",null,null,"W",null,"W",null,"W",null,"W",null,"W","W",null,"W","W","W"],[null,"W","W","W",null,null,null,null,"W",null,"W"]],"timingvisible":false,"tabcounter":10,"stave":4,"totalstaves":5,"instrument":"6guitar","selectedtuning":"6_standard","version":"13"}

Member for

4 years 5 months
Submitted by amongstkc on Fri, 2019-03-15 09:45