Devil (Rhythm Guitar)

Chords

01234567891011121314151617181920212223
E
B
G
D
A
E
B
0 1 2 3 4 5 6 7 8 9 10 11 12 13 14 15 16 17 18 19 20 21 22 23
(/) Slide Up  (\) Slide Down  (h) Hammer On  (p) Pull Off  (b) Bend (r) Release (v) Vibrato

Intro 

Bb|------------------------------------------------------------------------------------------
Gb|------------------------------------------------------------------------------------------
Db|-------------------------------------------5---------------------------------------/7-----
Ab|-----7-----5-----5-----8-----8--7-----5h7-----------7-----5-----5-----8-----8--7-------5--
Db|--0-----0-----0-----0-----0--------0-------------0-----0-----0-----0-----0--------0-------
Ab|------------------------------------------------------------------------------------------



Bb|-----------------------------------------------------------------------------------------
Gb|-----------------------------------------------------------------------------------------
Db|-------------------------------------------5---------------------------------------------
Ab|-----7-----5-----5-----8-----8--7-----5h7--------7-----5-----5-----3-----10--8-----7--5--
Db|--0-----0-----0-----0-----0--------0----------0-----0-----0-----0-----0---------0--------
Ab|-----------------------------------------------------------------------------------------



Bb|-------------------------------------------------------------------------------------------
Gb|-------------------------------------------------------------------------------------------
Db|--0--2--0--0--0--0--0--3--0--3--2--0--0-2--5-----0--2--0--0--0--0--0--3--0--3--2--0--7--0--
Ab|--0--2--0--0--0--0--0--3--0--3--2--0--0-2--5-----0--2--0--0--0--0--0--3--0--3--2--0--7--0--
Db|--0--2--0--0--0--0--0--3--0--3--2--0--0-2--5-----0--2--0--0--0--0--0--3--0--3--2--0--7--0--
Ab|-------------------------------------------------------------------------------------------



Bb|-------------------------------------------------------------------------------------------
Gb|----------------------------------------------------------------------6--------------------
Db|--0--2--0--0--0--0--0--3--0--3--2--0--0-2--5-----0--2--0--0--0--0--0--5--0--5--3--0--2--0--
Ab|--0--2--0--0--0--0--0--3--0--3--2--0--0-2--5-----0--2--0--0--0--0--0--3--0--5--3--0--2--0--
Db|--0--2--0--0--0--0--0--3--0--3--2--0--0-2--5-----0--2--0--0--0--0--0-----0--5--3--0--2--0--
Ab|-------------------------------------------------------------------------------------------

Verse Chords

Bb|--------------------------------------------------
Gb|--5-----4--------2-----------------7-----7-----5--
Db|--5-----5--------3-----------------0-----5-----3--
Ab|--0-----5--------3-----------------5-----5-----3--
Db|--0-----5--------3-----------------0-----5-----3--
Ab|--------------------------------------------------

Pre Chorus

Bb|------------------------------------
Gb|----------------------------5-7--7--
Db|----------------------------4-6--6--
Ab|--1h3p1--------1h3p1--------3-5--5--
Db|---------3--0---------3--0----------
Ab|------------------------------------

Chorus Chords

Bb|-----------------------------
Gb|-----------------------------
Db|--5-----------------3-----5--
Ab|--5-----8-----------3-----3--
Db|--5-----5-----------3-----3--
Ab|-----------------------------

Solo Chords

Bb|-----------------------------------------------------------------------------------------------
Gb|-----------------------------------------------------------------------------------------------
Db|--1-----8-----5-----------1-----8-----5-----1-----8-----5--------1--3--5--------1-----8-----5--
Ab|--1-----8-----5-----------1-----8-----5-----1-----8-----5--------1--3--5--------1-----8-----5--
Db|--1-----8-----5-----------1-----8-----5-----1-----8-----5--------1--3--5--------1-----8-----5--
Ab|-----------------------------------------------------------------------------------------------

							http://www.guitartabcreator.com
Instruments
{"title":"Devil (Rhythm Guitar)","strings":[[[".",".",".",".",".",".",".",".",".",".",".",".",".",".",".",".",".",".",".",".",".",".",".",".",".",".",".",".",".",".",".","."],[".",".",".",".",".",".",".",".",".",".",".",".",".",".",".",".",".",".",".",".",".",".",".",".",".",".",".",".",".",".",".","."],[".",".",".",".",".",".",".",".",".",".",".",".",".",".",".",5,".",".",".",".",".",".",".",".",".",".",".",".",".","/",7,"."],[".",7,".",5,".",5,".",8,".",8,7,".",5,"h",7,".",".",".",7,".",5,".",5,".",8,".",8,7,".",".",".",5],[0,".",0,".",0,".",0,".",0,".",".",0,".",".",".",".",".",0,".",0,".",0,".",0,".",0,".",".",0,".",".","."],[".",".",".",".",".",".",".",".",".",".",".",".",".",".",".",".",".",".",".",".",".",".",".",".",".",".",".",".",".",".",".","."]],[[".",".",".",".",".",".",".",".",".",".",".",".",".",".",".",".",".",".",".",".",".",".",".",".",".",".",".",".",".","."],[".",".",".",".",".",".",".",".",".",".",".",".",".",".",".",".",".",".",".",".",".",".",".",".",".",".",".",".",".","."],[".",".",".",".",".",".",".",".",".",".",".",".",".",".",".",5,".",".",".",".",".",".",".",".",".",".",".",".",".","."],[".",7,".",5,".",5,".",8,".",8,7,".",5,"h",7,".",".",7,".",5,".",5,".",3,".",10,8,".",7,5],[0,".",0,".",0,".",0,".",0,".",".",0,".",".",".",".",0,".",0,".",0,".",0,".",0,".",".",0,".","."],[".",".",".",".",".",".",".",".",".",".",".",".",".",".",".",".",".",".",".",".",".",".",".",".",".",".",".",".",".","."]],[[".",".",".",".",".",".",".",".",".",".",".",".",".",".",".",".",".",".",".",".",".",".",".",".",".",".",".",".",".",".","."],[".",".",".",".",".",".",".",".",".",".",".",".",".",".",".",".",".",".",".",".",".",".",".",".",".",".",".",".",".",".","."],[0,2,0,0,0,0,0,3,0,3,2,0,0,"h",2,5,".",0,2,0,0,0,0,0,3,0,3,2,0,7,0],[0,2,0,0,0,0,0,3,0,3,2,0,0,"h",2,5,".",0,2,0,0,0,0,0,3,0,3,2,0,7,0],[0,2,0,0,0,0,0,3,0,3,2,0,0,"h",2,5,".",0,2,0,0,0,0,0,3,0,3,2,0,7,0],[".",".",".",".",".",".",".",".",".",".",".",".",".",".",".",".",".",".",".",".",".",".",".",".",".",".",".",".",".",".","."]],[[".",".",".",".",".",".",".",".",".",".",".",".",".",".",".",".",".",".",".",".",".",".",".",".",".",".",".",".",".",".","."],[".",".",".",".",".",".",".",".",".",".",".",".",".",".",".",".",".",".",".",".",".",".",".",".",6,".",".",".",".",".","."],[0,2,0,0,0,0,0,3,0,3,2,0,0,"h",2,5,".",0,2,0,0,0,0,0,5,0,5,3,0,2,0],[0,2,0,0,0,0,0,3,0,3,2,0,0,"h",2,5,".",0,2,0,0,0,0,0,3,0,5,3,0,2,0],[0,2,0,0,0,0,0,3,0,3,2,0,0,"h",2,5,".",0,2,0,0,0,0,0,".",0,5,3,0,2,0],[".",".",".",".",".",".",".",".",".",".",".",".",".",".",".",".",".",".",".",".",".",".",".",".",".",".",".",".",".",".","."]],[[".",".",".",".",".",".",".",".",".",".",".",".",".",".",".","."],[5,".",4,".",".",2,".",".",".",".",".",7,".",7,".",5],[5,".",5,".",".",3,".",".",".",".",".",0,".",5,".",3],[0,".",5,".",".",3,".",".",".",".",".",5,".",5,".",3],[0,".",5,".",".",3,".",".",".",".",".",0,".",5,".",3],[".",".",".",".",".",".",".",".",".",".",".",".",".",".",".","."]],[[".",".",".",".",".",".",".",".",".",".",".",".",".",".",".",".",".","."],[".",".",".",".",".",".",".",".",".",".",".",".",".",".",5,"/",7,7],[".",".",".",".",".",".",".",".",".",".",".",".",".",".",4,"/",6,6],[1,"h",3,"p",1,".",".",1,"h",3,"p",1,".",".",3,"/",5,5],[".",".",".",".",".",3,0,".",".",".",".",".",3,0,".",".",".","."],[".",".",".",".",".",".",".",".",".",".",".",".",".",".",".",".",".","."]],[[".",".",".",".",".",".",".",".","."],[".",".",".",".",".",".",".",".","."],[5,".",".",".",".",".",3,".",5],[5,".",8,".",".",".",3,".",3],[5,".",5,".",".",".",3,".",3],[".",".",".",".",".",".",".",".","."]],[[".",".",".",".",".",".",".",".",".",".",".",".",".",".",".",".",".",".",".",".",".",".",".",".",".",".",".",".",".",".","."],[".",".",".",".",".",".",".",".",".",".",".",".",".",".",".",".",".",".",".",".",".",".",".",".",".",".",".",".",".",".","."],[1,".",8,".",5,".",".",".",1,".",8,".",5,".",1,".",8,".",5,".",".",1,3,5,".",".",1,".",8,".",5],[1,".",8,".",5,".",".",".",1,".",8,".",5,".",1,".",8,".",5,".",".",1,3,5,".",".",1,".",8,".",5],[1,".",8,".",5,".",".",".",1,".",8,".",5,".",1,".",8,".",5,".",".",1,3,5,".",".",1,".",8,".",5],[".",".",".",".",".",".",".",".",".",".",".",".",".",".",".",".",".",".",".",".",".",".",".",".",".",".",".",".",".",".","."]]],"numberofstrings":6,"notes":["AsBb","FsGb","CsDb","GsAb","CsDb","GsAb","B"],"capo":0,"stringnotes":["Bb0","Gb6","Db5","Ab1","Db1","Ab1"],"comments":["Intro ","","","","Verse Chords","Pre Chorus","Chorus Chords","Solo Chords"],"timing":[[null,"W","W","W","W","W","W","W","W","W","W","W","W","W","W","W","W",null,"W","W","W","W","W","W","W","W","W","W","W","W",null,"W","W"],[null,"W","W","W","W","W","W","W","W","W","W","W","W","W",null,"W","W","W","W","W","W","W","W","W","W","W","W","W","W","W","W"],[null,"W","W","W","W","W","W","W","W","W","W","W","W","W",null,"W","W",null,"W","W","W","W","W","W","W","W","W","W","W","W","W","W"],[null,"W","W","W","W","W","W","W","W",null,"W","W","W","W",null,"W","W",null,"W","W","W","W","W","W","W","W","W","W","W","W","W","W"],[null,"W",null,"W",null,null,"W",null,null,null,null,null,"W",null,"W","W","W"],[null,"W",null,"W",null,"W","W","W","W",null,"W",null,"W","W","W","W",null,"W","W"],[null,"W",null,"W",null,null,null,"W",null,"W"],[null,"W",null,"W",null,"W",null,null,null,"W",null,"W",null,"W",null,"W",null,null,"W","W",null,null,"W","W","W",null,null,"W",null,"W",null,"W"]],"timingvisible":false,"tabcounter":16,"stave":4,"totalstaves":8,"instrument":"6guitar","selectedtuning":"6_standard","version":"13"}

Member for

4 years 5 months
Submitted by amongstkc on Wed, 2019-01-30 11:27