Devil (Bass)

Chords

01234567891011121314151617181920212223
E
B
G
D
A
E
B
0 1 2 3 4 5 6 7 8 9 10 11 12 13 14 15 16 17 18 19 20 21 22 23
(/) Slide Up  (\) Slide Down  (h) Hammer On  (p) Pull Off  (b) Bend (r) Release (v) Vibrato

Intro/Main Riff

Gb|------------------------------------------------------------------------------------------
Db|-------------------------------------------5---------------------------------------/7-----
Ab|-----7-----5-----5-----8-----8--7-----5h7--------7-----5-----5-----8-----8--7----------5--
Db|--0-----0-----0-----0-----0--------0----------0-----0-----0-----0-----0--------0----------



Gb|-----------------------------------------------------------------------------------------
Db|-------------------------------------------5---------------------------------------------
Ab|-----7-----5-----5-----8-----8--7-----5h7--------7-----5-----5-----3-----10--8-----7--5--
Db|--0-----0-----0-----0-----0--------0----------0-----0-----0-----0-----0---------0--------

Same Riff Heavier

Gb|----------------------------------------------------------------------------------------
Db|----------------------------------------------------------------------------------------
Ab|----------------------------------------------------------------------------------------
Db|--0--2--0--0--0--0--0--3--0--3--2--0--0h2--5--0--2--0--0--0--0--0--3--0--3--2--0--7--0--



Gb|----------------------------------------------------------------------------------------
Db|----------------------------------------------------------------------------------------
Ab|-------------------------------------------------------------------3--------------------
Db|--0--2--0--0--0--0--0--3--0--3--2--0--0h2--5--0--2--0--0--0--0--0-----0--5--3--0--2--0--

Verse Root Notes 

Gb|---------------------------------------------------------------
Db|---------------------------------------------------------------
Ab|---------------------------------------------------------------
Db|--0--5--0--5--0--5--3--5--------------------0--5--5p3--5p3-----

Pre Chorus

Gb|----------------------------------
Db|----------------------------------
Ab|--1--3--------1--3--------3h5--5--
Db|--------3--0--------3--0----------

Chorus

Gb|-----------------------------------------------
Db|-----------------------------------------------
Ab|-----------------------------------------------
Db|--5--5--8--5--5--5--8-----3--3--5--3--3--3--5--

							http://www.guitartabcreator.com
Instruments
{"title":"The Devil","strings":[[[".",".",".",".",".",".",".",".",".",".",".",".",".",".",".",".",".",".",".",".",".",".",".",".",".",".",".",".",".",".",".","."],[".",".",".",".",".",".",".",".",".",".",".",".",".",".",".",5,".",".",".",".",".",".",".",".",".",".",".",".",".","/",7,"."],[".",7,".",5,".",5,".",8,".",8,7,".",5,"h",7,".",".",7,".",5,".",5,".",8,".",8,7,".",".",".",".",5],[0,".",0,".",0,".",0,".",0,".",".",0,".",".",".",".",0,".",0,".",0,".",0,".",0,".",".",0,".",".",".","."]],[[".",".",".",".",".",".",".",".",".",".",".",".",".",".",".",".",".",".",".",".",".",".",".",".",".",".",".",".",".","."],[".",".",".",".",".",".",".",".",".",".",".",".",".",".",".",5,".",".",".",".",".",".",".",".",".",".",".",".",".","."],[".",7,".",5,".",5,".",8,".",8,7,".",5,"h",7,".",".",7,".",5,".",5,".",3,".",10,8,".",7,5],[0,".",0,".",0,".",0,".",0,".",".",0,".",".",".",".",0,".",0,".",0,".",0,".",0,".",".",0,".","."]],[[".",".",".",".",".",".",".",".",".",".",".",".",".",".",".",".",".",".",".",".",".",".",".",".",".",".",".",".",".","."],[".",".",".",".",".",".",".",".",".",".",".",".",".",".",".",".",".",".",".",".",".",".",".",".",".",".",".",".",".","."],[".",".",".",".",".",".",".",".",".",".",".",".",".",".",".",".",".",".",".",".",".",".",".",".",".",".",".",".",".","."],[0,2,0,0,0,0,0,3,0,3,2,0,0,"h",2,5,0,2,0,0,0,0,0,3,0,3,2,0,7,0]],[[".",".",".",".",".",".",".",".",".",".",".",".",".",".",".",".",".",".",".",".",".",".",".",".",".",".",".",".",".","."],[".",".",".",".",".",".",".",".",".",".",".",".",".",".",".",".",".",".",".",".",".",".",".",".",".",".",".",".",".","."],[".",".",".",".",".",".",".",".",".",".",".",".",".",".",".",".",".",".",".",".",".",".",".",3,".",".",".",".",".","."],[0,2,0,0,0,0,0,3,0,3,2,0,0,"h",2,5,0,2,0,0,0,0,0,".",0,5,3,0,2,0]],[[".",".",".",".",".",".",".",".",".",".",".",".",".",".",".",".",".",".",".",".",".",".","."],[".",".",".",".",".",".",".",".",".",".",".",".",".",".",".",".",".",".",".",".",".",".","."],[".",".",".",".",".",".",".",".",".",".",".",".",".",".",".",".",".",".",".",".",".",".","."],[0,5,0,5,0,5,3,5,".",".",".",".",".",".",0,5,5,"p",3,5,"p",3,"."]],[[".",".",".",".",".",".",".",".",".",".",".","."],[".",".",".",".",".",".",".",".",".",".",".","."],[1,3,".",".",1,3,".",".",3,"h",5,5],[".",".",3,0,".",".",3,0,".",".",".","."]],[[".",".",".",".",".",".",".",".",".",".",".",".",".",".","."],[".",".",".",".",".",".",".",".",".",".",".",".",".",".","."],[".",".",".",".",".",".",".",".",".",".",".",".",".",".","."],[5,5,8,5,5,5,8,".",3,3,5,3,3,3,5]]],"numberofstrings":4,"notes":["FsGb","CsDb","GsAb","CsDb"],"capo":0,"stringnotes":["Gb2","Db2","Ab1","Db1"],"comments":["Intro/Main Riff","","Same Riff Heavier","","Verse Root Notes ","Pre Chorus","Chorus"],"timing":[[null,"W","W","W","W","W","W","W","W","W","W","W","W","W",null,"W","W","W","W","W","W","W","W","W","W","W","W","W","W",null,null,"W","W"],[null,"W","W","W","W","W","W","W","W","W","W","W","W","W",null,"W","W","W","W","W","W","W","W","W","W","W","W","W","W","W","W"],[null,"W","W","W","W","W","W","W","W","W","W","W","W","W",null,"W","W","W","W","W","W","W","W","W","W","W","W","W","W","W","W"],[null,"W","W","W","W","W","W","W","W","W","W","W","W","W",null,"W","W","W","W","W","W","W","W","W","W","W","W","W","W","W","W"],[null,"W","W","W","W","W","W","W","W",null,null,null,null,null,null,"W","W","W",null,"W","W","W",null,"W"],[null,"W","W","W","W","W","W","W","W","W",null,"W","W"],[null,"W","W","W","W","W","W","W",null,"W","W","W","W","W","W","W"]],"timingvisible":false,"tabcounter":15,"stave":6,"totalstaves":7,"instrument":"4bass","selectedtuning":"4bass_standard","version":"13"}

Member for

4 years 5 months
Submitted by amongstkc on Fri, 2018-10-19 15:01