For Blood Was Spilt That Day (Rhythm)

Chords

01234567891011121314151617181920212223
E
B
G
D
A
E
B
0 1 2 3 4 5 6 7 8 9 10 11 12 13 14 15 16 17 18 19 20 21 22 23
(/) Slide Up  (\) Slide Down  (h) Hammer On  (p) Pull Off  (b) Bend (r) Release (v) Vibrato

Intro/Verse 1

Eb|--------------------------------------------------------------------------------------------------------
Bb|--------------------------------------------------------------------------------------------------------
Gb|--------------------------------------------------------------------------------------------------------
Db|-----------8-----------------8-----------------8-----------------8-----------------7-----------------7--
Ab|--------------------------------------------------------------------------------------------------------
Db|--5--0--5-----5--0--5--0--5-----------5--0--5-----5--0--5--0--5-----------3--0--3-----3--0--3--0--3-----



Eb|--------------------------------------
Bb|--------------------------------------
Gb|--------------------------------------
Db|-----------7--------------------------
Ab|-----------------------3p0--1p0-----
Db|--3--0--3-----3--0--3--------------3--

Pre-Chorus

Eb|--------------------------------------------------------------------------------------------------------
Bb|--------------------------------------------------------------------------------------------------------
Gb|--------------------------------------------------------------------------------------------------------
Db|-----------8-----------------8-----------------8-----------------8-----------------5-----------------5--
Ab|--------------------------------------------------------------------------------------------------------
Db|--5--0--5-----5--0--5--0--5-----5--0--5--0--5-----5--0--5--0--5-----5--0--1--0--1-----1--0--1--0--1-----



Eb|--------------------------------------------
Bb|--------------------------------------------
Gb|--------------------------------------------
Db|-----------------7-----------------7--------
Ab|--------------------------------------------
Db|--1--0--3--0--3-----3--0--3--0--3-----3--0--

Chorus

Eb|-----------
Bb|-----------
Gb|-----------
Db|--8-----5--
Ab|--8-----5--
Db|--8-----5--

Post Chorus

Eb|-----------
Bb|-----------
Gb|-----------
Db|--3-----1--
Ab|--3-----1--
Db|--3-----1--

2nd Verse

Eb|-----------------------------------------------------------------------------------------------------------------------------
Bb|-----------------------------------------------------------------------------------------------------------------------------
Gb|-----------------------------------------------------------------------------------------------------------------------------
Db|-----------8--------7--------8--------------------8--------7--------8--------------------7--------5--------7-----------------
Ab|-----------------------------------------------------------------------------------------------------------------------------
Db|--5--5--5-----5--5-----5--5-----5--5-----5--5--5-----5--5-----5--5-----5--5-----3--3--3-----3--3-----3--3-----3--3-----------



Eb|--------------------------------------
Bb|--------------------------------------
Gb|--------------------------------------
Db|-----------7--------5--------7--------
Ab|--------------------------------------
Db|--3--3--3-----3--3-----3--3-----3--3--

Post Pre-Chorus

Eb|---------------------------
Bb|---------------------------
Gb|---------------------------
Db|--3--3---------------------
Ab|--3--3--------3p0--1p0-----
Db|--3--3-----3------------3--

Bridge

Eb|--------------------------------------------------------------------------
Bb|--------------------------------------------------------------------------
Gb|--------------------------------------------------------------------------
Db|--------------------------------------------------------------------------
Ab|--------------------------------------------------------------------------
Db|--5--0--5--8--7--5--3--0--3--7--5--3--1--0--1--5--3--1--3--0--3--7--5--3--

2nd part of Bridge

Eb|--------------------------------------------------
Bb|--------------------------------------------------
Gb|--------------------------------------------------
Db|--5--0--5--8-----3--0--3--5--------------1-----3--
Ab|--5--0--5--8-----3--0--3--5--------------1-----3--
Db|--5--0--5--8-----3--0--3--5--------------1-----3--

							http://www.guitartabcreator.com
{"strings":[[[".",".",".",".",".",".",".",".",".",".",".",".",".",".",".",".",".",".",".",".",".",".",".",".",".",".",".",".",".",".",".",".",".","."],[".",".",".",".",".",".",".",".",".",".",".",".",".",".",".",".",".",".",".",".",".",".",".",".",".",".",".",".",".",".",".",".",".","."],[".",".",".",".",".",".",".",".",".",".",".",".",".",".",".",".",".",".",".",".",".",".",".",".",".",".",".",".",".",".",".",".",".","."],[".",".",".",8,".",".",".",".",".",8,".",".",".",".",".",8,".",".",".",".",".",8,".",".",".",".",".",7,".",".",".",".",".",7],[".",".",".",".",".",".",".",".",".",".",".",".",".",".",".",".",".",".",".",".",".",".",".",".",".",".",".",".",".",".",".",".",".","."],[5,0,5,".",5,0,5,0,5,".",".",".",5,0,5,".",5,0,5,0,5,".",".",".",3,0,3,".",3,0,3,0,3,"."]],[[".",".",".",".",".",".",".","_","_","_",".",".",".","."],[".",".",".",".",".",".",".","_","_","_",".",".",".","."],[".",".",".",".",".",".",".","_","_","_",".",".",".","."],[".",".",".",7,".",".",".","_","_","_",".",".",".","."],[".",".",".",".",".",".",".",3,"p",0,1,"p",0,"."],[3,0,3,".",3,0,3,"_","_","_",".",".",".",3]],[[".",".",".",".",".",".",".",".",".",".",".","_",".","_",".",".",".",".",".",".",".",".",".",".",".",".",".",".",".",".",".",".",".","."],[".",".",".",".",".",".",".",".",".",".",".","_",".","_",".",".",".",".",".",".",".",".",".",".",".",".",".",".",".",".",".",".",".","."],[".",".",".",".",".",".",".",".",".",".",".","_",".","_",".",".",".",".",".",".",".",".",".",".",".",".",".",".",".",".",".",".",".","."],[".",".",".",8,".",".",".",".",".",8,".","_",".","_",".",8,".",".",".",".",".",8,".",".",".",".",".",5,".",".",".",".",".",5],[".",".",".",".",".",".",".",".",".",".",".","_",".","_",".",".",".",".",".",".",".",".",".",".",".",".",".",".",".",".",".",".",".","."],[5,0,5,".",5,0,5,0,5,".",5,0,5,0,5,".",5,0,5,0,5,".",5,0,1,0,1,".",1,0,1,0,1,"."]],[[".",".",".",".",".",".",".",".",".",".",".",".",".","."],[".",".",".",".",".",".",".",".",".",".",".",".",".","."],[".",".",".",".",".",".",".",".",".",".",".",".",".","."],[".",".",".",".",".",7,".",".",".",".",".",7,".","."],[".",".",".",".",".",".",".",".",".",".",".",".",".","."],[1,0,3,0,3,".",3,0,3,0,3,".",3,0]],[[".",".","."],[".",".","."],[".",".","."],[8,".",5],[8,".",5],[8,".",5]],[[".",".","."],[".",".","."],[".",".","."],[3,".",1],[3,".",1],[3,".",1]],[["_","_","_",".",".",".",".",".",".",".",".",".","_","_",".",".",".",".",".",".",".",".","_",".","_","_",".","_",".","_","_",".","_",".","_","_",".","_","_","_","."],["_","_","_",".",".",".",".",".",".",".",".",".","_","_",".",".",".",".",".",".",".",".","_",".","_","_",".","_",".","_","_",".","_",".","_","_",".","_","_","_","."],["_","_","_",".",".",".",".",".",".",".",".",".","_","_",".",".",".",".",".",".",".",".","_",".","_","_",".","_",".","_","_",".","_",".","_","_",".","_","_","_","."],["_","_","_",8,".",".",7,".",".",8,".",".","_","_",".",".",8,".",".",7,".",".",8,".","_","_",".","_",".",7,"_",".",5,".","_",7,".","_","_","_","."],["_","_","_",".",".",".",".",".",".",".",".",".","_","_",".",".",".",".",".",".",".",".","_",".","_","_",".","_",".","_","_",".","_",".","_","_",".","_","_","_","."],[5,5,5,".",5,5,".",5,5,".",5,5,"_",5,5,5,".",5,5,".",5,5,"_",5,5,"_",3,3,3,"_",3,3,"_",3,3,"_",3,3,"_","_","."]],[[".",".",".",".",".",".",".",".",".",".",".","."],[".",".",".",".",".",".",".",".",".",".",".","."],[".",".",".",".",".",".",".",".",".",".",".","."],[".",".",".",7,".",".",5,".",".",7,".","."],[".",".",".",".",".",".",".",".",".",".",".","."],[3,3,3,".",3,3,".",3,3,".",3,3]],[[".",".",".",".",".",".",".",".",".",".","."],[".",".",".",".",".",".",".",".",".",".","."],[".",".",".",".",".",".",".",".",".",".","."],[3,3,".",".",".",".",".",".",".",".","."],[3,3,".",".",3,"p",0,1,"p",0,"."],[3,3,".",3,".",".",".",".",".",".",3]],[[".",".",".",".",".",".",".",".",".",".",".",".",".",".",".",".",".",".",".",".",".",".",".","."],[".",".",".",".",".",".",".",".",".",".",".",".",".",".",".",".",".",".",".",".",".",".",".","."],[".",".",".",".",".",".",".",".",".",".",".",".",".",".",".",".",".",".",".",".",".",".",".","."],[".",".",".",".",".",".",".",".",".",".",".",".",".",".",".",".",".",".",".",".",".",".",".","."],[".",".",".",".",".",".",".",".",".",".",".",".",".",".",".",".",".",".",".",".",".",".",".","."],[5,0,5,8,7,5,3,0,3,7,5,3,1,0,1,5,3,1,3,0,3,7,5,3]],[[".",".",".",".",".",".",".",".",".",".",".",".",".",".",".","."],[".",".",".",".",".",".",".",".",".",".",".",".",".",".",".","."],[".",".",".",".",".",".",".",".",".",".",".",".",".",".",".","."],[5,0,5,8,".",3,0,3,5,".",".",".",".",1,".",3],[5,0,5,8,".",3,0,3,5,".",".",".",".",1,".",3],[5,0,5,8,".",3,0,3,5,".",".",".",".",1,".",3]]],"numberofstrings":6,"notes":["DsEb","AsBb","FsGb","CsDb","GsAb","CsDb","B"],"capo":0,"stringnotes":["Eb4","Bb3","Gb3","Db3","Ab2","Db2"],"comments":["Intro/Verse 1","","Pre-Chorus","","Chorus","Post Chorus","2nd Verse","","Post Pre-Chorus","Bridge","2nd part of Bridge"],"timing":[[null,"W","W","W","W","W","W","W","W","W","W",null,null,"W","W","W","W","W","W","W","W","W","W",null,null,"W","W","W","W","W","W","W","W","W","W"],[null,"W","W","W","W","W","W","W","W","W","W","W",null,"W","W",null,"W"],[null,"W","W","W","W","W","W","W","W","W","W","W","W",null,"W","W","W","W","W","W","W","W","W","W","W","W","W","W","W","W","W","W","W","W","W"],[null,"W","W","W","W","W","W","W","W","W","W","W","W","W","W"],[null,"W",null,"W"],[null,"W",null,"W"],[null,"W","W","W",null,"W","W","W","W","W","W","W","W","W","W","W","W","W","W","W","W",null,"W","W","W","W","W","W","W","W","W","W","W","W","W","W","W","W","W","W","W","W",null,"W","W","W",null,"W","W","W","W","W","W","W"],[null,"W","W","W","W","W","W","W","W","W","W","W","W"],[null,"W","W",null,"W","W",null,"W","W",null,"W","W"],[null,"W","W","W","W","W","W","W","W","W","W","W","W","W","W","W","W","W","W","W","W","W","W","W","W"],[null,"W","W","W","W",null,"W","W","W","W",null,null,null,null,null,"W","W"]],"timingvisible":false,"tabcounter":16,"stave":10,"totalstaves":11,"instrument":"6guitar","selectedtuning":"6_standard","version":"13"}

Member for

4 years 5 months
Submitted by amongstkc on Sun, 2020-04-26 08:51