Begone (Rhythm Guitar)

Chords

01234567891011121314151617181920212223
E
B
G
D
A
E
B
0 1 2 3 4 5 6 7 8 9 10 11 12 13 14 15 16 17 18 19 20 21 22 23
(/) Slide Up  (\) Slide Down  (h) Hammer On  (p) Pull Off  (b) Bend (r) Release (v) Vibrato

Intro Riff

Bb|-----------------------------------------------------------------------------------------------------
Gb|-----------------------------------------------------------------------------------------------------
Db|-----------------------------------------------------------------------------------------------------
Ab|-----------------------------------------------------------------------------------------------------
Db|--1--0-----------------------------1--0-----------------------------1--0-----------------------------
Ab|--------3--0--0--0--0--3--0--3--5--------3--0--0--0--0--3--0--3--5--------3--0--0--0--0--3--0--3--5--



Bb|-----------------------------------------
Gb|-----------------------------------------
Db|-----------------------------------------
Ab|-----------------------------------------
Db|--1--0--------------6--5-----5-----------
Ab|--------3--0--0--0--------6-----6--5-----

Verse

Bb|-----------------------------------------------------------------------------
Gb|-----------------------------------------------------------------------------
Db|-----------------------------------------------------------------------------
Ab|-----------------------------------------------------------------------------
Db|-----------------------------------------------------------------------------
Ab|--0--0-----0--0--0-----0--0--------0--0-----0--0--0-----0--0--0--3\5--5v-----

Chorus 

Bb|-------------------------------------------------------------------------------
Gb|-------------------------------------------------------------------------------
Db|-------------------------------------------------------------------------------
Ab|-------------------------------------------------------------------------------
Db|--7-----10-----5-----7-----6--5-----5-----7-----10-----5-----7-----6--5-----5--
Ab|--5-----8------3-----5-----------8--------5-----8------3-----5-----------8-----



Bb|-----------------------------------------------------------------------------------------
Gb|-----------------------------------------------------------------------------------------
Db|-----------------------------------------------------------------------------------------
Ab|-----------------------------------------------------------------------------------------
Db|--7-----10-----12-----2-----5--------7-----10-----5-----7-----6--5-----5-----8-----------
Ab|--5-----8------10-----0-----3--------5-----8------3-----5-----------8--------6-----------

Bridge

Bb|-------------------------------------------------------------------------------------------
Gb|-------------------------------------------------------------------------------------------
Db|-------------------------------------------------------------------------------------------
Ab|-------------------------------------------------------------------------------------------
Db|--7-----------------------------3--5--------------------------3h5--------------------------
Ab|--5-----3--3--3-----3--3--3--6-----------3--3--3-----3--3--3----------3--3--3-----3--3--3--



Bb|-----------------------------------------------
Gb|-----------------------------------------------
Db|-----------------------------------------------
Ab|-----------------------------8--8--8--6--6--6--
Db|--5--6--5--------------------------------------
Ab|-----------6--6--6--5--5--5--------------------

Bridge Part 2

Bb|--------------------------------------------------------------------------------
Gb|--------------------------------------------------------------------------------
Db|--------------------------------------------------------------------------------
Ab|--------------------------------------------------------------------------------
Db|--------3--5--------------3--5--------------3--5--------------3--5--------5--6--
Ab|--3--6--------3-----3--6--------3-----3--6--------3-----3--6--------6--8--------

							http://www.guitartabcreator.com
Instruments
{"title":"Begone (Rhythm Guitar)","strings":[[[".",".",".",".",".",".",".",".",".",".",".",".",".",".",".",".",".",".",".",".",".",".",".",".",".",".",".",".",".",".",".",".","."],[".",".",".",".",".",".",".",".",".",".",".",".",".",".",".",".",".",".",".",".",".",".",".",".",".",".",".",".",".",".",".",".","."],[".",".",".",".",".",".",".",".",".",".",".",".",".",".",".",".",".",".",".",".",".",".",".",".",".",".",".",".",".",".",".",".","."],[".",".",".",".",".",".",".",".",".",".",".",".",".",".",".",".",".",".",".",".",".",".",".",".",".",".",".",".",".",".",".",".","."],[1,0,".",".",".",".",".",".",".",".",".",1,0,".",".",".",".",".",".",".",".",".",1,0,".",".",".",".",".",".",".",".","."],[".",".",3,0,0,0,0,3,0,3,5,".",".",3,0,0,0,0,3,0,3,5,".",".",3,0,0,0,0,3,0,3,5]],[[".",".",".",".",".",".",".",".",".",".",".",".","."],[".",".",".",".",".",".",".",".",".",".",".",".","."],[".",".",".",".",".",".",".",".",".",".",".",".","."],[".",".",".",".",".",".",".",".",".",".",".",".","."],[1,0,".",".",".",".",6,5,".",5,".",".","."],[".",".",3,0,0,0,".",".",6,".",6,5,"."]],[[".",".",".",".",".",".",".",".",".",".",".",".",".",".",".",".",".",".",".",".",".",".",".",".",".",".","."],[".",".",".",".",".",".",".",".",".",".",".",".",".",".",".",".",".",".",".",".",".",".",".",".",".",".","."],[".",".",".",".",".",".",".",".",".",".",".",".",".",".",".",".",".",".",".",".",".",".",".",".",".",".","."],[".",".",".",".",".",".",".",".",".",".",".",".",".",".",".",".",".",".",".",".",".",".",".",".",".",".","."],[".",".",".",".",".",".",".",".",".",".",".",".",".",".",".",".",".",".",".",".",".",".",".",".",".",".","."],[0,0,".",0,0,0,".",0,0,".",".",0,0,".",0,0,0,".",0,0,0,3,"\\",5,5,"v","."]],[[".",".",".",".",".",".",".",".",".",".",".",".",".",".",".",".",".",".",".",".",".",".",".",".","."],[".",".",".",".",".",".",".",".",".",".",".",".",".",".",".",".",".",".",".",".",".",".",".",".","."],[".",".",".",".",".",".",".",".",".",".",".",".",".",".",".",".",".",".",".",".",".",".",".",".","."],[".",".",".",".",".",".",".",".",".",".",".",".",".",".",".",".",".",".",".",".",".",".",".",".","."],[7,".",10,".",5,".",7,".",6,5,".",5,".",7,".",10,".",5,".",7,".",6,5,".",5],[5,".",8,".",3,".",5,".",".",".",8,".",".",5,".",8,".",3,".",5,".",".",".",8,"."]],[[".",".",".",".",".",".",".",".",".",".",".",".",".",".",".",".",".",".",".",".",".",".",".",".",".",".",".","."],[".",".",".",".",".",".",".",".",".",".",".",".",".",".",".",".",".",".",".",".",".",".",".",".",".",".",".","."],[".",".",".",".",".",".",".",".",".",".",".",".",".",".",".",".",".",".",".",".",".",".",".",".",".",".",".","."],[".",".",".",".",".",".",".",".",".",".",".",".",".",".",".",".",".",".",".",".",".",".",".",".",".",".",".","."],[7,".",10,".",12,".",2,".",5,".",".",7,".",10,".",5,".",7,".",6,5,".",5,".",8,".",".","."],[5,".",8,".",10,".",0,".",3,".",".",5,".",8,".",3,".",5,".",".",".",8,".",".",6,".",".","."]],[[".",".",".",".",".",".",".",".",".",".",".",".",".",".",".",".",".",".",".",".",".",".",".",".",".",".",".",".",".",".","."],[".",".",".",".",".",".",".",".",".",".",".",".",".",".",".",".",".",".",".",".",".",".",".",".",".",".",".",".",".",".","."],[".",".",".",".",".",".",".",".",".",".",".",".",".",".",".",".",".",".",".",".",".",".",".",".",".",".",".",".",".",".","."],[".",".",".",".",".",".",".",".",".",".",".",".",".",".",".",".",".",".",".",".",".",".",".",".",".",".",".",".",".",".","."],[7,".",".",".",".",".",".",".",".",".",3,5,".",".",".",".",".",".",".",".",3,"h",5,".",".",".",".",".",".",".","."],[5,".",3,3,3,".",3,3,3,6,".",".",".",3,3,3,".",3,3,3,".",".",".",".",3,3,3,".",3,3,3]],[[".",".",".",".",".",".",".",".",".",".",".",".",".",".","."],[".",".",".",".",".",".",".",".",".",".",".",".",".",".","."],[".",".",".",".",".",".",".",".",".",".",".",".",".",".","."],[".",".",".",".",".",".",".",".",".",8,8,8,6,6,6],[5,6,5,".",".",".",".",".",".",".",".",".",".",".","."],[".",".",".",6,6,6,5,5,5,".",".",".",".",".","."]],[[".",".",".",".",".",".",".",".",".",".",".",".",".",".",".",".",".",".",".",".",".",".",".",".",".","."],[".",".",".",".",".",".",".",".",".",".",".",".",".",".",".",".",".",".",".",".",".",".",".",".",".","."],[".",".",".",".",".",".",".",".",".",".",".",".",".",".",".",".",".",".",".",".",".",".",".",".",".","."],[".",".",".",".",".",".",".",".",".",".",".",".",".",".",".",".",".",".",".",".",".",".",".",".",".","."],[".",".",3,5,".",".",".",".",3,5,".",".",".",".",3,5,".",".",".",".",3,5,".",".",5,6],[3,6,".",".",3,".",3,6,".",".",3,".",3,6,".",".",3,".",3,6,".",".",6,8,".","."]]],"numberofstrings":6,"notes":["AsBb","FsGb","CsDb","GsAb","CsDb","GsAb","B"],"capo":0,"stringnotes":["Bb4","Gb2","Db3","Ab2","Db2","Ab1"],"comments":["Intro Riff","","Verse","Chorus ","","Bridge","","Bridge Part 2"],"timing":[["W","W","W","W","W","W","W","W","W","W","W","W","W","W","W","W","W","W","W","W","W","W","W","W","W","W","W","W","W","W","W","W","W","W"],["W","W","W","W","W","W","W","W","W","W","W","W","W"],["W","W","W","W","W","W","W","W","W","W","W","W","W","W","W","W","W","W","W","W","W","W","W","W","W","W"],["W","W","W","W","W","W","W","W","W","W","W","W","W","W","W",null,"W",null,"W",null,"W",null,"W","W","W","W"],[null,"W","W","W",null,"W",null,"W",null,"W",null,null,"W",null,"W",null,"W",null,"W",null,"W","W","W","W",null,null,null,null,"W"],[null,"W",null,"W","W","W",null,"W","W","W","W","W","W",null,"W","W","W",null,"W","W","W","W",null,"W",null,"W","W","W",null,"W","W","W"],[null,"W","W","W","W","W","W","W","W","W","W","W","W","W","W","W"],[null,"W","W","W","W","W",null,"W","W","W","W","W",null,"W","W","W","W","W",null,"W","W","W","W","W","W","W","W"]],"timingvisible":false,"tabcounter":26,"stave":7,"totalstaves":8,"instrument":"6guitar","selectedtuning":"6_standard","version":"13"}

Member for

4 years 5 months
Submitted by amongstkc on Wed, 2018-11-21 09:52