Antro (Rhythm Guitar)

Chords

01234567891011121314151617181920212223
E
B
G
D
A
E
B
0 1 2 3 4 5 6 7 8 9 10 11 12 13 14 15 16 17 18 19 20 21 22 23
(/) Slide Up  (\) Slide Down  (h) Hammer On  (p) Pull Off  (b) Bend (r) Release (v) Vibrato

Intro Chords

Bb|-----------
Gb|-----------
Db|-----------
Ab|--5-----0--
Db|--5-----0--
Ab|-----------

Main Riff

Bb|----------------------------------------------------------------------------------------
Gb|----------------------------------------------------------------------------------------
Db|--0--0-------------------3-----0--0------------------------0--0-------------------3-----
Ab|--0--0--3p0--------------3-----0--0--3p0-------------------0--0--3p0--------------3-----
Db|--0--0-------6--5--6--5--3-----0--0-------6--5--6--3b------0--0-------6--5--6--5--3-----
Ab|----------------------------------------------------------------------------------------



Bb|--------------------
Gb|--------------------
Db|--0--2--0--3--0--5--
Ab|--0--2--0--3--0--5--
Db|--0--2--0--3--0--5--
Ab|--------------------

Verse Chords

Bb|--------------
Gb|--------------
Db|--0--------5--
Ab|--0--------5--
Db|--0--------5--
Ab|--------------

Chorus

Bb|----------------------------------
Gb|----------------------------------
Db|--0--0--------5-7--10-----7-------
Ab|--0--0--------5-7--10-----7-------
Db|--0--0--x--x--5-7--10-----7-------
Ab|--------x--x-----------------3b---

							http://www.guitartabcreator.com
Instruments
{"title":"Antro (Rhythm Guitar)","strings":[[[".",".","."],[".",".","."],[".",".","."],[5,".",0],[5,".",0],[".",".","."]],[[".",".",".",".",".",".",".",".",".",".",".",".",".",".",".",".",".",".",".",".",".",".",".",".",".",".",".",".",".",".",".",".",".","."],[".",".",".",".",".",".",".",".",".",".",".",".",".",".",".",".",".",".",".",".",".",".",".",".",".",".",".",".",".",".",".",".",".","."],[0,0,".",".",".",".",".",".",".",3,".",0,0,".",".",".",".",".",".",".",".",".",".",0,0,".",".",".",".",".",".",".",3,"."],[0,0,3,"p",0,".",".",".",".",3,".",0,0,3,"p",0,".",".",".",".",".",".",".",0,0,3,"p",0,".",".",".",".",3,"."],[0,0,".",".",".",6,5,6,5,3,".",0,0,".",".",".",6,5,6,3,"b",".",".",0,0,".",".",".",6,5,6,5,3,"."],[".",".",".",".",".",".",".",".",".",".",".",".",".",".",".",".",".",".",".",".",".",".",".",".",".",".",".",".",".",".",".",".",".","."]],[[".",".",".",".",".","."],[".",".",".",".",".","."],[0,2,0,3,0,5],[0,2,0,3,0,5],[0,2,0,3,0,5],[".",".",".",".",".","."]],[[".",".",".","."],[".",".",".","."],[0,".",".",5],[0,".",".",5],[0,".",".",5],[".",".",".","."]],[[".",".",".",".",".",".",".",".",".",".",".",".","."],[".",".",".",".",".",".",".",".",".",".",".",".","."],[0,0,".",".",5,"/",7,10,".",7,".",".","."],[0,0,".",".",5,"/",7,10,".",7,".",".","."],[0,0,"x","x",5,"/",7,10,".",7,".",".","."],[".",".","x","x",".",".",".",".",".",".",3,"b","."]]],"numberofstrings":6,"notes":["AsBb","FsGb","CsDb","GsAb","CsDb","GsAb","B"],"capo":0,"stringnotes":["Bb1","Gb2","Db1","Ab2","Db3","Ab1"],"comments":["Intro Chords","Main Riff","","Verse Chords","Chorus"],"timing":[[null,"W",null,"W"],[null,"W","W","W",null,"W","W","W","W","W","W",null,"W","W","W",null,"W","W","W","W","W",null,null,null,"W","W","W",null,"W","W","W","W","W","W"],[null,"W","W","W","W","W","W"],[null,"W",null,null,"W"],[null,"W","W",null,null,"W",null,"W","W",null,"W","W",null,"W"]],"timingvisible":false,"tabcounter":13,"stave":4,"totalstaves":5,"instrument":"6guitar","selectedtuning":"6_standard","version":"13"}

Member for

4 years 5 months
Submitted by amongstkc on Wed, 2019-01-30 11:06