12th Hour

Chords

01234567891011121314151617181920212223
E
B
G
D
A
E
B
0 1 2 3 4 5 6 7 8 9 10 11 12 13 14 15 16 17 18 19 20 21 22 23
(/) Slide Up  (\) Slide Down  (h) Hammer On  (p) Pull Off  (b) Bend (r) Release (v) Vibrato

Intro

Eb|-----------------------------------------------------------------------------------
Bb|-----------------------------------------------------------------------------------
Gb|-----------------------------------------------------------------------------------
Db|--0-----5-----------0--0--0--0--0--0-----0--0--0-----0--0--0--0--0--0-----0--0--0--
Ab|--0-----5-----------0--0--0--0--0--0-----0--0--0-----0--0--0--0--0--0-----0--0--0--
Db|--0-----5-----------0--0--0--0--0--0-----0--0--0-----0--0--0--0--0--0-----0--0--0--



Eb|------------------------------------------------------------------------
Bb|------------------------------------------------------------------------
Gb|------------------------------------------------------------------------
Db|------------------------------------------------------------------------
Ab|------------------------------------------------------------------------
Db|--5--5--5--5--5--5-----5--5--5-----5--5--5--5--5--5-----4b5r4--2--4-----

Pre Verse

Eb|-----------------------------
Bb|-----------------------------
Gb|-----------------------------
Db|--2-----7--------------------
Ab|--2-----7--------------------
Db|--2-----7-----7--7--7--7--7--

Verse

Eb|--------------------------------------------------------------------------------------------------
Bb|--------------------------------------------------------------------------------------------------
Gb|--------------------------------------------------------------------------------------------------
Db|--0--0--0--0--0--0-----0--0--0-----0--0--0--0--0--0-----0--0--0-----5--5--5--5--5--5-----5--5--5--
Ab|--0--0--0--0--0--0-----0--0--0-----0--0--0--0--0--0-----0--0--0-----5--5--5--5--5--5-----5--5--5--
Db|--0--0--0--0--0--0-----0--0--0-----0--0--0--0--0--0-----0--0--0-----5--5--5--5--5--5-----5--5--5--



Eb|------------------------------------
Bb|------------------------------------
Gb|------------------------------------
Db|--7--7--7--7--7--7------------------
Ab|--7--7--7--7--7--7------------------
Db|--7--7--7--7--7--7-----4b5r4--2--4--



Eb|---------------------------------------------------------------------------------------------------------------------------
Bb|---------------------------------------------------------------------------------------------------------------------------
Gb|---------------------------------------------------------------------------------------------------------------------------
Db|---------------------------------------------------------------------------------------------------------------------------
Ab|-----------4--2--0-----------------5--4-----------4--2--0-----------------4--5--7-----------5--7--5-----------------5\4/5--
Db|--0--0--0-----------0--0--0--0--0--------0--0--0-----------0--0--0--0--0-----------5--5--5-----------5--5--5--5--5---------



Eb|-----------------------------------------------
Bb|-----------------------------------------------
Gb|-----------------------------------------------
Db|-----------------------------------------------
Ab|-----------7--9--10-----------------12--10--9--
Db|--7--7--7------------7--7--7--7--7-------------

Pre-Chorus

Eb|-----------------------------------------------------
Bb|-----------------------------------------------------
Gb|--------------------------------------------7--------
Db|--12-----11-----9----4--------12-----11-----7-----5--
Ab|--9------7------5-4--0--------9------7------5-----5--
Db|--9------7------5-4--0--------9------7------0-----5--

Chorus

Eb|--------------------------------------------------------------------------------------------------------------------------------------------------------
Bb|--------------------------------------------------------------------------------------------------------------------------------------------------------
Gb|--------7-----------7--------------------------------7-----------7--------------------------------------------------------------------------------------
Db|--0-----------0-----------0-----2--4--2--0-----0-----------0-----------0--2--4-----5--5--5-----5--5--5-----8--7-----------------------------------------
Ab|--0-----5-----0-----5-----0-----2--4--2--0-----0-----5-----0-----5-----0--2--4-----5--5--5-----5--5--5-----8--7-----------------------------------------
Db|--0-----------0-----------0-----2--4--2--0-----0-----------0-----------0--2--4-----5--5--5-----5--5--5-----8--7-----------------------------------------

Pre-Verse

Eb|-----------------------------------------------------------------------------------------------
Bb|-----------------------------------------------------------------------------------------------
Gb|--------------------------------------------------------------------------------------------7--
Db|-----------------------------------------------------------------------------------------------
Ab|--7--------------------------7-----9-----10--------7---------------------------------0h7h9-----
Db|-----0--0--0--0--0--0-----0-----0-----0---------------0--0--0--0--0--0--0-----0h7h9------------



Eb|---------------------------------------------------------------------------------------------------
Bb|---------------------------------------------------------------------------------------------------
Gb|---------------------------------------------------------------------------------------------------
Db|---------------------------------------------------------------------------------------------------
Ab|--7--------------------------7-----9-----10--------7--------------------------10--9--7-----10--9--7--
Db|-----0--0--0--0--0--0-----0-----0-----0---------------0--0--0--0--0--0--0--------------------------

Bridge

Eb|--_--------------------------------------------------------------------------------------------------------------------------
Bb|--_--------------------------------------------------------------------------------------------------------------------------
Gb|--_--------------------------------------------------------------------------------------------------------------------------
Db|--_-------------------------------------------------0--0--------------------------0--0---------------------------------------
Ab|--_-------------------------------------------------0--0--------3--2--0-----------0--0--------3--2--0------------------------
Db|--12--0--12--0--7--9-----0--12--0--5--9--7--5--------0--0--4--5-----------5--4--2--0--0--4--5-----------2b---0--0-----2b------

							http://www.guitartabcreator.com
{"strings":[[[".",".",".",".",".",".",".",".",".",".",".",".",".",".",".",".",".",".",".",".",".",".",".",".",".",".","."],[".",".",".",".",".",".",".",".",".",".",".",".",".",".",".",".",".",".",".",".",".",".",".",".",".",".","."],[".",".",".",".",".",".",".",".",".",".",".",".",".",".",".",".",".",".",".",".",".",".",".",".",".",".","."],[0,".",5,".",".",".",0,0,0,0,0,0,".",0,0,0,".",0,0,0,0,0,0,".",0,0,0],[0,".",5,".",".",".",0,0,0,0,0,0,".",0,0,0,".",0,0,0,0,0,0,".",0,0,0],[0,".",5,".",".",".",0,0,0,0,0,0,".",0,0,0,".",0,0,0,0,0,0,".",0,0,0]],[[".",".",".",".",".",".",".",".",".",".",".",".",".",".",".",".",".",".",".",".",".",".",".","_",".","_"],[".",".",".",".",".",".",".",".",".",".",".",".",".",".",".",".",".",".",".",".",".",".",".","_",".","_"],[".",".",".",".",".",".",".",".",".",".",".",".",".",".",".",".",".",".",".",".",".",".",".","_",".","_"],[".",".",".",".",".",".",".",".",".",".",".",".",".",".",".",".",".",".",".",".",".",".",".","_",".","_"],[".",".",".",".",".",".",".",".",".",".",".",".",".",".",".",".",".",".",".",".",".",".",".","_",".","_"],[5,5,5,5,5,5,".",5,5,5,".",5,5,5,5,5,5,".",4,"b",5,"r",4,2,4,"_"]],[[".",".",".",".",".",".",".",".","."],[".",".",".",".",".",".",".",".","."],[".",".",".",".",".",".",".",".","."],[2,".",7,".",".",".",".",".","."],[2,".",7,".",".",".",".",".","."],[2,".",7,".",7,7,7,7,7]],[[".",".",".",".",".",".",".",".",".",".",".",".",".",".",".",".",".",".",".",".",".","_",".",".",".",".",".",".","_",".",".","."],[".",".",".",".",".",".",".",".",".",".",".",".",".",".",".",".",".",".",".",".",".","_",".",".",".",".",".",".","_",".",".","."],[".",".",".",".",".",".",".",".",".",".",".",".",".",".",".",".",".",".",".",".",".","_",".",".",".",".",".",".","_",".",".","."],[0,0,0,0,0,0,".",0,0,0,".",0,0,0,0,0,0,".",0,0,0,"_",5,5,5,5,5,5,"_",5,5,5],[0,0,0,0,0,0,".",0,0,0,".",0,0,0,0,0,0,".",0,0,0,"_",5,5,5,5,5,5,"_",5,5,5],[0,0,0,0,0,0,".",0,0,0,".",0,0,0,0,0,0,".",0,0,0,"_",5,5,5,5,5,5,"_",5,5,5]],[[".",".",".",".",".",".",".",".",".",".",".",".",".","."],[".",".",".",".",".",".",".",".",".",".",".",".",".","."],[".",".",".",".",".",".",".",".",".",".",".",".",".","."],[7,7,7,7,7,7,".",".",".",".",".",".",".","."],[7,7,7,7,7,7,".",".",".",".",".",".",".","."],[7,7,7,7,7,7,".",4,"b",5,"r",4,2,4]],[[".",".",".",".",".",".",".",".",".",".",".",".",".",".",".",".",".",".",".",".",".",".",".",".",".",".",".",".",".",".",".",".",".",".",".",".",".",".",".",".",".",".","."],[".",".",".",".",".",".",".",".",".",".",".",".",".",".",".",".",".",".",".",".",".",".",".",".",".",".",".",".",".",".",".",".",".",".",".",".",".",".",".",".",".",".","."],[".",".",".",".",".",".",".",".",".",".",".",".",".",".",".",".",".",".",".",".",".",".",".",".",".",".",".",".",".",".",".",".",".",".",".",".",".",".",".",".",".",".","."],[".",".",".",".",".",".",".",".",".",".",".",".",".",".",".",".",".",".",".",".",".",".",".",".",".",".",".",".",".",".",".",".",".",".",".",".",".",".",".",".",".",".","."],[".",".",".",4,2,0,".",".",".",".",".",5,4,".",".",".",4,2,0,".",".",".",".",".",4,5,7,".",".",".",5,7,5,".",".",".",".",".",5,"\\",4,"/",5],[0,0,0,".",".",".",0,0,0,0,0,".",".",0,0,0,".",".",".",0,0,0,0,0,".",".",".",5,5,5,".",".",".",5,5,5,5,5,".",".",".",".","."]],[[".",".",".",".",".",".",".",".",".",".",".",".",".","."],[".",".",".",".",".",".",".",".",".",".",".",".",".","."],[".",".",".",".",".",".",".",".",".",".",".",".",".","."],[".",".",".",".",".",".",".",".",".",".",".",".",".","."],[".",".",".",7,9,10,".",".",".",".",".",12,10,9],[7,7,7,".",".",".",7,7,7,7,7,".",".","."]],[[".",".",".",".",".",".",".",".",".",".",".",".",".",".",".",".","."],[".",".",".",".",".",".",".",".",".",".",".",".",".",".",".",".","."],[".",".",".",".",".",".",".",".",".",".",".",".",".",".",7,".","."],[12,".",11,".",9,".",".",4,".",".",12,".",11,".",7,".",5],[9,".",7,".",5,"\\",4,0,".",".",9,".",7,".",5,".",5],[9,".",7,".",5,"\\",4,0,".",".",9,".",7,".",0,".",5]],[["_",".",".",".",".",".",".",".",".",".",".",".",".",".",".",".",".","_",".",".",".",".",".",".",".",".",".",".",".",".",".",".",".",".",".",".",".",".",".",".",".",".",".",".",".",".",".",".",".","."],["_",".",".",".",".",".",".",".",".",".",".",".",".",".",".",".",".","_",".",".",".",".",".",".",".",".",".",".",".",".",".",".",".",".",".",".",".",".",".",".",".",".",".",".",".",".",".",".",".","."],["_",".",7,".",".",".",7,".",".",".",".",".",".",".",".",".",".",7,".",".",".",7,".",".",".",".",".",".",".",".",".",".",".",".",".",".",".",".",".",".",".",".",".",".",".",".",".",".",".","."],[0,".",".",".",0,".",".",".",0,".",2,4,2,0,".",0,".","_",".",0,".",".",".",0,2,4,".",5,5,5,".",5,5,5,".",8,7,".",".",".",".",".",".",".",".",".",".",".",".","."],[0,".",5,".",0,".",5,".",0,".",2,4,2,0,".",0,".",5,".",0,".",5,".",0,2,4,".",5,5,5,".",5,5,5,".",8,7,".",".",".",".",".",".",".",".",".",".",".",".","."],[0,".",".",".",0,".",".",".",0,".",2,4,2,0,".",0,".","_",".",0,".",".",".",0,2,4,".",5,5,5,".",5,5,5,".",8,7,".",".",".",".",".",".",".",".",".",".",".",".","."]],[[".",".",".",".",".",".",".",".",".",".",".",".",".",".",".",".",".",".",".",".",".",".",".",".",".",".",".",".",".",".",".",".",".",".",".","."],[".",".",".",".",".",".",".",".",".",".",".",".",".",".",".",".",".",".",".",".",".",".",".",".",".",".",".",".",".",".",".",".",".",".",".","."],[".",".",".",".",".",".",".",".",".",".",".",".",".",".",".",".",".",".",".",".",".",".",".",".",".",".",".",".",".",".",".",".",".",".",".",7],[".",".",".",".",".",".",".",".",".",".",".",".",".",".",".",".",".",".",".",".",".",".",".",".",".",".",".",".",".",".",".",".",".",".",".","."],[7,".",".",".",".",".",".",".",".",7,".",9,".",10,".",".",7,".",".",".",".",".",".",".",".",".",".",".",".",".",0,"h",7,"h",9,"."],[".",0,0,0,0,0,0,".",0,".",0,".",0,".",".",".",".",0,0,0,0,0,0,0,".",0,"h",7,"h",9,".",".",".",".",".","."]],[[".",".",".",".",".",".",".",".",".",".",".",".",".",".",".",".",".",".",".",".",".",".",".",".","_","_","_","_",".",".",".","."],[".",".",".",".",".",".",".",".",".",".",".",".",".",".",".",".",".",".",".",".",".",".",".",".","_","_","_","_",".",".",".","."],[".",".",".",".",".",".",".",".",".",".",".",".",".",".",".",".",".",".",".",".",".",".",".",".","_","_","_","_",".",".",".","."],[".",".",".",".",".",".",".",".",".",".",".",".",".",".",".",".",".",".",".",".",".",".",".",".","_","_","_","_",".",".",".","."],[7,".",".",".",".",".",".",".",".",7,".",9,".",10,".",".",7,".",".",".",".",".",".",".","_",10,9,7,".",10,9,7],[".",0,0,0,0,0,0,".",0,".",0,".",0,".",".",".",".",0,0,0,0,0,0,0,"_","_","_","_",".",".",".","."]],[["_",".",".",".",".",".",".",".",".",".",".",".",".",".",".",".",".",".",".",".",".",".",".",".",".",".",".",".",".",".",".",".",".",".",".","_",".",".",".",".",".","_","_"],["_",".",".",".",".",".",".",".",".",".",".",".",".",".",".",".",".",".",".",".",".",".",".",".",".",".",".",".",".",".",".",".",".",".",".","_",".",".",".",".",".","_","_"],["_",".",".",".",".",".",".",".",".",".",".",".",".",".",".",".",".",".",".",".",".",".",".",".",".",".",".",".",".",".",".",".",".",".",".","_",".",".",".",".",".","_","_"],["_",".",".",".",".",".",".",".",".",".",".",".",".",".",".",".",0,0,".",".",".",".",".",".",".",".",0,0,".",".",".",".",".",".",".","_",".",".",".",".",".","_","_"],["_",".",".",".",".",".",".",".",".",".",".",".",".",".",".",".",0,0,".",".",3,2,0,".",".",".",0,0,".",".",3,2,0,".",".","_",".",".",".",".",".","_","_"],[12,0,12,0,7,9,".",0,12,0,5,9,7,5,".",".",0,0,4,5,".",".",".",5,4,2,0,0,4,5,".",".",".",2,"b","_",0,0,".",2,"b","_","_"]]],"numberofstrings":6,"notes":["DsEb","AsBb","FsGb","CsDb","GsAb","CsDb","B"],"capo":0,"stringnotes":["Eb4","Bb3","Gb3","Db3","Ab2","Db2"],"comments":["Intro","","Pre Verse","Verse","","","","Pre-Chorus","Chorus","Pre-Verse","","Bridge"],"timing":[[null,"W",null,"W",null,null,null,"W","W","W","W","W","W",null,"W","W","W",null,"W","W","W","W","W","W",null,"W","W","W"],[null,"W","W","W","W","W","W",null,"W","W","W",null,null,"W","W","W","W","W",null,"W",null,"W",null,"W","W","W","W","W"],[null,"W",null,"W",null,"W","W","W","W","W"],[null,"W","W","W","W","W","W",null,"W","W","W",null,"W","W","W","W","W","W",null,"W","W","W","W","W","W","W","W","W","W","W","W","W","W"],[null,"W","W","W","W","W","W",null,"W",null,"W",null,"W","W","W"],[null,"W","W","W","W","W","W","W","W","W","W","W","W","W","W","W","W","W","W","W","W","W","W","W","W","W","W","W",null,"W","W","W","W","W","W","W","W","W","W","W",null,"W",null,"W"],[null,"W","W","W","W","W","W","W","W","W","W","W","W","W","W"],[null,"W",null,"W",null,"W",null,"W","W",null,null,"W",null,"W",null,"W",null,"W"],[null,"W",null,"W",null,"W",null,"W",null,"W",null,"W","W","W","W",null,"W",null,"W",null,null,null,null,null,null,null,null,null,null,null,null,null,null,null,null,null,null,null,null,null,null,null,null,null,null,null,null,null,null,null,null,"W"],[null,"W","W","W","W","W","W","W",null,"W","W","W","W","W","W",null,null,"W","W","W","W","W","W","W","W",null,"W",null,"W",null,"W","W",null,"W",null,"W","W"],[null,"W","W","W","W","W",null,"W",null,"W","W","W","W","W","W",null,null,"W","W","W","W","W","W","W","W","W","W","W","W",null,null,null,"W",null,null,null,"W"],[null,"W","W","W","W","W","W",null,"W","W","W","W","W","W","W",null,null,null,null,"W","W","W","W","W","W","W","W","W","W","W","W","W","W","W","W","W","W","W",null,null,null,null,"W"]],"timingvisible":false,"tabcounter":43,"stave":11,"totalstaves":12,"instrument":"6guitar","selectedtuning":"6_standard","version":"13"}

Member for

4 years 5 months
Submitted by amongstkc on Sun, 2020-04-26 10:28