Sound will begin in 5 seconds

Solo #1

01234567891011121314151617181920212223
E
B
G
D
A
E
B
0 1 2 3 4 5 6 7 8 9 10 11 12 13 14 15 16 17 18 19 20 21 22 23
Song Science #1: How Pros Use 6 Chords to Write Hit Songs
(/) Slide Up  (\) Slide Down  (h) Hammer On  (p) Pull Off  (b) Bend (r) Release (v) Vibrato

Stave 1:

E|--9--11--12--9--10--12--9--11--12--9--10--12--9--11--12--9--10--12--9--11--12--9--10--12--15b17--15--
B|-----------------------------------------------------------------------------------------------------
G|-----------------------------------------------------------------------------------------------------
D|-----------------------------------------------------------------------------------------------------
A|-----------------------------------------------------------------------------------------------------
D|-----------------------------------------------------------------------------------------------------

Stave 2:

E|--18--15--15--15--15--15--15--15--18--15--18b20--17v--7-----7-----5-----5-----7-----7-----7--9--10v--
B|---------------------------------------------------------5-----5-----7-----7-----5-----5-------------
G|-----------------------------------------------------------------------------------------------------
D|-----------------------------------------------------------------------------------------------------
A|-----------------------------------------------------------------------------------------------------
D|-----------------------------------------------------------------------------------------------------

Stave 3:

E|-----------------------------------------------------------------------------------------------
B|--9/12--12--14--15--12--17--15--14--17--12v----------------------------------------------------
G|---------------------------------------------15--13--12----------------------------------------
D|---------------------------------------------------------15--13--12----------------------------
A|---------------------------------------------------------------------15--13--12----------------
D|---------------------------------------------------------------------------------15--13--12\0--

http://www.guitartabcreator.com
Guitar Tab Creator is intended to store guitar tab created through the tool. It currently does not support in-line text editing. Any text you place in here will be lost. If you need to comment on your tab, please use the "Tab Notes" section located below.