let it be

Chords

01234567891011121314151617181920212223
E
B
G
D
A
E
B
0 1 2 3 4 5 6 7 8 9 10 11 12 13 14 15 16 17 18 19 20 21 22 23
(/) Slide Up  (\) Slide Down  (h) Hammer On  (p) Pull Off  (b) Bend (r) Release (v) Vibrato

Stave 1:

E|-------------------------------------------------------------------------------------------------------------------------------------------------------------
B|-------------------------------------------------------------------------------------------------------------------------------------------------------------
G|--5--5-----------------------5--5-----------------------------------------------5--7--9--9--9--7--7--5--5--9--9--10--9--9--7--9--7---------------------------
D|--------5--5--7--7--5--3--3--------5--5--3--2--0--------5--5--5--5--7-----5--5------------------------------------------------------10--2--0-----------------
A|--------------------------------------------------3--------------------7----------------------------------------------------------------------3--------------
E|-------------------------------------------------------------------------------------------------------------------------------------------------------------

Stave 2:

E|-------------------------------------------------------------------------------------------
B|-------------------------------------------------------------------------------------------
G|--------------------------5--7--9--9--9--7--7--5--5--9--9--10--9--9--7--9--7---------------
D|--5--5--5--5--7-----5--5------------------------------------------------------10--2--0-----
A|-----------------7----------------------------------------------------------------------3--
E|-------------------------------------------------------------------------------------------

Stave 3:

E|--------------------------------------------------------------------------------------
B|--------------------------------------------------------------------------------------
G|--9--7--5--9--12--14--12--12--9--7--5--------9--9--9--10--9--9--7--9--7---------------
D|---------------------------------------7--5------------------------------10--2--0-----
A|-----------------------------------------------------------------------------------3--
E|--------------------------------------------------------------------------------------

Stave 4:

E|-------------------------------------------------------------------------------------------
B|-------------------------------------------------------------------------------------------
G|-----------------------------5--7--9--9--9--7--7--5--5--9--10--9--9--7--9--7---------------
D|-----5--5--5--5--7-----5--5---------------------------------------------------10--2--0-----
A|--------------------7-------------------------------------------------------------------3--
E|-------------------------------------------------------------------------------------------

Stave 5:

E|--------------------------------------------------------------------------------------------------------------------------------------------------------------------------
B|--------------------------------------------------------------------------------------------------------------------------------------------------------------------------
G|--9--7--5--9--12--14--12--12--9--7--5--------9--9--9--10--9--9--7--9--7---------------9--7--5--9--12--14--12--12--9--7--5--------9--9--9--10--9--9--7--9--7---------------
D|---------------------------------------7--5------------------------------10--2--0------------------------------------------7--5------------------------------10--2--0-----
A|-----------------------------------------------------------------------------------3-----------------------------------------------------------------------------------3--
E|--------------------------------------------------------------------------------------------------------------------------------------------------------------------------

Stave 6:

E|-----------------------------------------------------------
B|-----------------------------------------------------------
G|-----------------------------------------------------------
D|--3--2--0--------------------3--2--0-----------------------
A|-----------3--1--0--------3-----------3--1--0--------3-----
E|--------------------3--1-----------------------3--1--------

Stave 7:

E|----------------------------------------------------------------------------------------------------------------------------------------------------------------------------------
B|----------------------------------------------------------------------------------------------------------------------------------------------------------------------------------
G|--9--7--5--9--12--14--12--12--9--7--5--------9--9--9--10--9--9--7--9--7---------------------------------------5--7--9--9--9--7--7--5--5--9--9--10--9--9--7--9--7------------------
D|---------------------------------------7--5------------------------------10--2--0-----5--5--5--5--7-----5--5------------------------------------------------------10--2--0--------
A|-----------------------------------------------------------------------------------3-----------------7----------------------------------------------------------------------3-----
E|----------------------------------------------------------------------------------------------------------------------------------------------------------------------------------

Stave 8:

E|----------------------------------------------------------------------------------------------------------------------------------------------------------------------------------
B|----------------------------------------------------------------------------------------------------------------------------------------------------------------------------------
G|--------------------------5--7--9--9--9--7--7--5--5--9--9--10--9--9--7--9--7---------------9--7--5--9--12--14--12--12--9--7--5--------9--9--9--10--9--9--7--9--7------------------
D|--5--5--5--5--7-----5--5------------------------------------------------------10--2--0------------------------------------------7--5------------------------------10--2--0--------
A|-----------------7----------------------------------------------------------------------3-----------------------------------------------------------------------------------3-----
E|----------------------------------------------------------------------------------------------------------------------------------------------------------------------------------

Stave 9:

E|-----------------------------------------------------------------------------------------------------------------------------------------------------------------------------
B|-----------------------------------------------------------------------------------------------------------------------------------------------------------------------------
G|--9--7--5--9--12--14--12--12--9--7--5--------9--9--9--10--9--9--7--9--7---------------9--7--5--9--12--14--12--12--9--7--5--------9--9--9--10--9--9--7--9--7------------------
D|---------------------------------------7--5------------------------------10--2--0------------------------------------------7--5------------------------------10--2--0--------
A|-----------------------------------------------------------------------------------3-----------------------------------------------------------------------------------3-----
E|-----------------------------------------------------------------------------------------------------------------------------------------------------------------------------

Stave 10:

E|--------------------------------------------------------
B|--------------------------------------------------------
G|--------------------------------------------------------
D|--3--2--0--------------------3--2--0--------------------
A|-----------3--1--0--------3-----------3--1--0--------3--
E|--------------------3--1-----------------------3--1-----

							http://www.guitartabcreator.com
Instruments
{"strings":[[[".",".",".",".",".",".",".",".",".",".",".",".",".",".",".",".",".","_",".",".",".",".",".",".",".",".",".",".",".",".",".",".",".",".",".",".",".",".",".",".",".",".",".",".",".",".",".","_",".",".","."],[".",".",".",".",".",".",".",".",".",".",".",".",".",".",".",".",".","_",".",".",".",".",".",".",".",".",".",".",".",".",".",".",".",".",".",".",".",".",".",".",".",".",".",".",".",".",".","_",".",".","."],[5,5,".",".",".",".",".",".",".",5,5,".",".",".",".",".",".","_",".",".",".",".",".",".",".",".",5,7,9,9,9,7,7,5,5,9,9,10,9,9,7,9,7,".",".",".",".","_",".",".","."],[".",".",5,5,7,7,5,3,3,".",".",5,5,3,2,0,".","_",5,5,5,5,7,".",5,5,".",".",".",".",".",".",".",".",".",".",".",".",".",".",".",".",".",10,2,0,".","_",".",".","."],[".",".",".",".",".",".",".",".",".",".",".",".",".",".",".",".",3,"_",".",".",".",".",".",7,".",".",".",".",".",".",".",".",".",".",".",".",".",".",".",".",".",".",".",".",".",".",3,"_",".",".","."],[".",".",".",".",".",".",".",".",".",".",".",".",".",".",".",".",".","_",".",".",".",".",".",".",".",".",".",".",".",".",".",".",".",".",".",".",".",".",".",".",".",".",".",".",".",".",".","_",".",".","."]],[[".",".",".",".",".",".",".",".",".",".",".",".",".",".",".",".",".",".",".",".",".",".",".",".",".",".",".",".","."],[".",".",".",".",".",".",".",".",".",".",".",".",".",".",".",".",".",".",".",".",".",".",".",".",".",".",".",".","."],[".",".",".",".",".",".",".",".",5,7,9,9,9,7,7,5,5,9,9,10,9,9,7,9,7,".",".",".","."],[5,5,5,5,7,".",5,5,".",".",".",".",".",".",".",".",".",".",".",".",".",".",".",".",".",10,2,0,"."],[".",".",".",".",".",7,".",".",".",".",".",".",".",".",".",".",".",".",".",".",".",".",".",".",".",".",".",".",3],[".",".",".",".",".",".",".",".",".",".",".",".",".",".",".",".",".",".",".",".",".",".",".",".",".",".",".",".","."]],[[".",".",".",".",".",".",".",".",".",".",".",".",".",".",".",".",".",".",".",".",".",".",".",".",".","."],[".",".",".",".",".",".",".",".",".",".",".",".",".",".",".",".",".",".",".",".",".",".",".",".",".","."],[9,7,5,9,12,14,12,12,9,7,5,".",".",9,9,9,10,9,9,7,9,7,".",".",".","."],[".",".",".",".",".",".",".",".",".",".",".",7,5,".",".",".",".",".",".",".",".",".",10,2,0,"."],[".",".",".",".",".",".",".",".",".",".",".",".",".",".",".",".",".",".",".",".",".",".",".",".",".",3],[".",".",".",".",".",".",".",".",".",".",".",".",".",".",".",".",".",".",".",".",".",".",".",".",".","."]],[[".",".",".",".",".",".",".",".",".",".",".",".",".",".",".",".",".",".",".",".",".",".",".",".",".",".",".",".","."],[".",".",".",".",".",".",".",".",".",".",".",".",".",".",".",".",".",".",".",".",".",".",".",".",".",".",".",".","."],[".",".",".",".",".",".",".",".",".",5,7,9,9,9,7,7,5,5,9,10,9,9,7,9,7,".",".",".","."],[".",5,5,5,5,7,".",5,5,".",".",".",".",".",".",".",".",".",".",".",".",".",".",".",".",10,2,0,"."],[".",".",".",".",".",".",7,".",".",".",".",".",".",".",".",".",".",".",".",".",".",".",".",".",".",".",".",".",3],[".",".",".",".",".",".",".",".",".",".",".",".",".",".",".",".",".",".",".",".",".",".",".",".",".",".",".",".","."]],[[".",".",".",".",".",".",".",".",".",".",".",".",".",".",".",".",".",".",".",".",".",".",".",".",".",".",".",".",".",".",".",".",".",".",".",".",".",".",".",".",".",".",".",".",".",".",".",".",".",".",".","."],[".",".",".",".",".",".",".",".",".",".",".",".",".",".",".",".",".",".",".",".",".",".",".",".",".",".",".",".",".",".",".",".",".",".",".",".",".",".",".",".",".",".",".",".",".",".",".",".",".",".",".","."],[9,7,5,9,12,14,12,12,9,7,5,".",".",9,9,9,10,9,9,7,9,7,".",".",".",".",9,7,5,9,12,14,12,12,9,7,5,".",".",9,9,9,10,9,9,7,9,7,".",".",".","."],[".",".",".",".",".",".",".",".",".",".",".",7,5,".",".",".",".",".",".",".",".",".",10,2,0,".",".",".",".",".",".",".",".",".",".",".",".",7,5,".",".",".",".",".",".",".",".",".",10,2,0,"."],[".",".",".",".",".",".",".",".",".",".",".",".",".",".",".",".",".",".",".",".",".",".",".",".",".",3,".",".",".",".",".",".",".",".",".",".",".",".",".",".",".",".",".",".",".",".",".",".",".",".",".",3],[".",".",".",".",".",".",".",".",".",".",".",".",".",".",".",".",".",".",".",".",".",".",".",".",".",".",".",".",".",".",".",".",".",".",".",".",".",".",".",".",".",".",".",".",".",".",".",".",".",".",".","."]],[[".",".",".",".",".",".",".",".",".",".",".",".",".",".",".",".",".",".","_"],[".",".",".",".",".",".",".",".",".",".",".",".",".",".",".",".",".",".","_"],[".",".",".",".",".",".",".",".",".",".",".",".",".",".",".",".",".",".","_"],[3,2,0,".",".",".",".",".",".",3,2,0,".",".",".",".",".",".","_"],[".",".",".",3,1,0,".",".",3,".",".",".",3,1,0,".",".",3,"_"],[".",".",".",".",".",".",3,1,".",".",".",".",".",".",".",3,1,".","_"]],[[".",".",".",".",".",".",".",".",".",".",".",".",".",".",".",".",".",".",".",".",".",".",".",".",".",".",".",".",".",".",".",".",".",".",".",".",".",".",".",".",".",".",".",".",".",".",".",".",".",".",".",".",".",".",".","_"],[".",".",".",".",".",".",".",".",".",".",".",".",".",".",".",".",".",".",".",".",".",".",".",".",".",".",".",".",".",".",".",".",".",".",".",".",".",".",".",".",".",".",".",".",".",".",".",".",".",".",".",".",".",".",".","_"],[9,7,5,9,12,14,12,12,9,7,5,".",".",9,9,9,10,9,9,7,9,7,".",".",".",".",".",".",".",".",".",".",".",".",5,7,9,9,9,7,7,5,5,9,9,10,9,9,7,9,7,".",".",".",".","_"],[".",".",".",".",".",".",".",".",".",".",".",7,5,".",".",".",".",".",".",".",".",".",10,2,0,".",5,5,5,5,7,".",5,5,".",".",".",".",".",".",".",".",".",".",".",".",".",".",".",".",".",10,2,0,".","_"],[".",".",".",".",".",".",".",".",".",".",".",".",".",".",".",".",".",".",".",".",".",".",".",".",".",3,".",".",".",".",".",7,".",".",".",".",".",".",".",".",".",".",".",".",".",".",".",".",".",".",".",".",".",".",3,"_"],[".",".",".",".",".",".",".",".",".",".",".",".",".",".",".",".",".",".",".",".",".",".",".",".",".",".",".",".",".",".",".",".",".",".",".",".",".",".",".",".",".",".",".",".",".",".",".",".",".",".",".",".",".",".",".","_"]],[[".",".",".",".",".",".",".",".",".",".",".",".",".",".",".",".",".",".",".",".",".",".",".",".",".",".",".",".",".",".",".",".",".",".",".",".",".",".",".",".",".",".",".",".",".",".",".",".",".",".",".",".",".",".",".","."],[".",".",".",".",".",".",".",".",".",".",".",".",".",".",".",".",".",".",".",".",".",".",".",".",".",".",".",".",".",".",".",".",".",".",".",".",".",".",".",".",".",".",".",".",".",".",".",".",".",".",".",".",".",".",".","."],[".",".",".",".",".",".",".",".",5,7,9,9,9,7,7,5,5,9,9,10,9,9,7,9,7,".",".",".",".",9,7,5,9,12,14,12,12,9,7,5,".",".",9,9,9,10,9,9,7,9,7,".",".",".",".","."],[5,5,5,5,7,".",5,5,".",".",".",".",".",".",".",".",".",".",".",".",".",".",".",".",".",10,2,0,".",".",".",".",".",".",".",".",".",".",".",".",7,5,".",".",".",".",".",".",".",".",".",10,2,0,".","."],[".",".",".",".",".",7,".",".",".",".",".",".",".",".",".",".",".",".",".",".",".",".",".",".",".",".",".",".",3,".",".",".",".",".",".",".",".",".",".",".",".",".",".",".",".",".",".",".",".",".",".",".",".",".",3,"."],[".",".",".",".",".",".",".",".",".",".",".",".",".",".",".",".",".",".",".",".",".",".",".",".",".",".",".",".",".",".",".",".",".",".",".",".",".",".",".",".",".",".",".",".",".",".",".",".",".",".",".",".",".",".",".","."]],[[".",".",".",".",".",".",".",".",".",".",".",".",".",".",".",".",".",".",".",".",".",".",".",".",".",".",".",".",".",".",".",".",".",".",".",".",".",".",".",".",".",".",".",".",".",".",".",".",".",".",".",".","."],[".",".",".",".",".",".",".",".",".",".",".",".",".",".",".",".",".",".",".",".",".",".",".",".",".",".",".",".",".",".",".",".",".",".",".",".",".",".",".",".",".",".",".",".",".",".",".",".",".",".",".",".","."],[9,7,5,9,12,14,12,12,9,7,5,".",".",9,9,9,10,9,9,7,9,7,".",".",".",".",9,7,5,9,12,14,12,12,9,7,5,".",".",9,9,9,10,9,9,7,9,7,".",".",".",".","."],[".",".",".",".",".",".",".",".",".",".",".",7,5,".",".",".",".",".",".",".",".",".",10,2,0,".",".",".",".",".",".",".",".",".",".",".",".",7,5,".",".",".",".",".",".",".",".",".",10,2,0,".","."],[".",".",".",".",".",".",".",".",".",".",".",".",".",".",".",".",".",".",".",".",".",".",".",".",".",3,".",".",".",".",".",".",".",".",".",".",".",".",".",".",".",".",".",".",".",".",".",".",".",".",".",3,"."],[".",".",".",".",".",".",".",".",".",".",".",".",".",".",".",".",".",".",".",".",".",".",".",".",".",".",".",".",".",".",".",".",".",".",".",".",".",".",".",".",".",".",".",".",".",".",".",".",".",".",".",".","."]],[[".",".",".",".",".",".",".",".",".",".",".",".",".",".",".",".",".","."],[".",".",".",".",".",".",".",".",".",".",".",".",".",".",".",".",".","."],[".",".",".",".",".",".",".",".",".",".",".",".",".",".",".",".",".","."],[3,2,0,".",".",".",".",".",".",3,2,0,".",".",".",".",".","."],[".",".",".",3,1,0,".",".",3,".",".",".",3,1,0,".",".",3],[".",".",".",".",".",".",3,1,".",".",".",".",".",".",".",3,1,"."]]],"numberofstrings":6,"notes":["E","B","G","D","A","E","B"],"capo":0,"stringnotes":["E4","B3","G3","D3","A2","E2"],"comments":["Stave 1:","Stave 2:","Stave 3:","Stave 4:","Stave 5:","Stave 6:","Stave 7:","Stave 8:","Stave 9:","Stave 10:"],"timing":[["W","W","W","W","W","W","W","W","W","W","W","W","W","W","W","W","W",null,"W","W","W","W","W","W","W","W","W","W","W","W","W","W","W","W","W","W","W","W","W","W","W","W","W","W","W","W","W",null,"W","W","W"],["W","W","W","W","W","W","W","W","W","W","W","W","W","W","W","W","W","W","W","W","W","W","W","W","W","W","W","W","W"],["W","W","W","W","W","W","W","W","W","W","W","W","W","W","W","W","W","W","W","W","W","W","W","W","W","W"],[null,"W","W","W","W","W","W","W","W","W","W","W","W","W","W","W","W","W","W","W","W","W","W","W","W","W","W","W","W"],[],["W","W","W","W","W","W","W","W","W","W"],[],[],[],[]],"timingvisible":false,"tabcounter":18,"stave":9,"totalstaves":10,"instrument":"6guitar","selectedtuning":"6_standard","version":"13"}

Member for

1 week 2 days
Submitted by amitaididi on Fri, 2020-07-31 15:53