Sound will begin in 5 seconds

Song 1 w/ Evan

Chords
01234567891011121314151617181920212223
E
B
G
D
A
E
B
0 1 2 3 4 5 6 7 8 9 10 11 12 13 14 15 16 17 18 19 20 21 22 23
Song Science #1: How Pros Use 6 Chords to Write Hit Songs
(/) Slide Up  (\) Slide Down  (h) Hammer On  (p) Pull Off  (b) Bend (r) Release (v) Vibrato

Stave 1:

E|--------------------------------------------------
B|--------------------------------------------------
G|-----------------------5--3--2--------------------
D|--------------------------------5--2-----------5--
A|-----------5--------------------------5--7--8-----
E|--5--7--8-----8--7--5-----------------------------

Stave 2:

E|------
B|------
G|------
D|--15--
A|--14--
E|--12--

Stave 3:

E|--------------------------------------------------------
B|--------------------------------------------------------
G|--------------------------------------------------------
D|--------------------------------------------------------
A|--0--------------0--------------------------------------
E|--0--0--0--0--0--0--0--0--0--0-----0--0--0-----0--0--0--

Stave 4:

E|--------------------------------------------------------------
B|--------------------------------------------------------------
G|--------------------------------------------------------------
D|--------------------------------7--------7--------7--------3--
A|--0--------------0--------------6--------6--------5--------5--
E|--0--0--0--0--0--0--0--0--0--0--6--0--0--6--0--0--5--0--0--1--

Stave 5:

E|--------------------------------------------------------
B|--------------------------------------------------------
G|--------------------------------------------------------
D|--------------------------------------------------------
A|--0--------------0--------------------------------------
E|--0--0--0--0--0--0--0--0--0--0-----0--0--0-----0--0--0--

Stave 6:

E|--------------------------------------------------------------
B|--------------------------------------------------------------
G|--------------------------------------------------------------
D|--------------------------------7--------7--------3--------5--
A|--0--------------0--------------6--------5--------1--------3--
E|--0--0--0--0--0--0--0--0--0--0--6--0--0--5--0--0--1--0--0--3--

Stave 7:

E|----------------------------------------------------------------------
B|----------------------------------------------------------------------
G|----------------------------------------------------------------------
D|----------------------------------------------------------------------
A|--10--------10--------12--------10-----8--------8--------10--------7--
E|------8--8------8--8------8--8------------5--5-----5--5------5--5-----

Stave 8:

E|-------------------------------------------------------------------
B|-------------------------------------------------------------------
G|-------------------------------------------------------------------
D|-------------------------------------------------------------------
A|--5--------5--------6-----0h3h6-----5--------5--------6-----0h3h6--
E|-----0--0-----0--0-----0---------0-----0--0-----0--0-----0---------

Stave 9:

E|--------------------------------------
B|--------------------------------------
G|--9--9--8-----------------------------
D|--8--8--8-----------------------7--8--
A|--6--6--6--------------5--6--8--------
E|--------------3--5--6-----------------

Stave 10:

E|---------------------------------------------------------------
B|---------------------------------------------------------------
G|---------------------------------------------------------------
D|---------------------------------------------------------------
A|--8--------8--------8--------10--5--------5--------5--------7--
E|--8--8--8--8--8--8--8--8--8--10--5--5--5--5--5--5--5--5--5--7--

Stave 11:

E|----------------------------------------------------------------------
B|----------------------------------------------------------------------
G|----------------------------------------------------------------------
D|----------------------------------------------------------------------
A|--0--------0--------0---------------0--------0--------0---------------
E|--0--0--0--0--0--0--0--0--0--3h5p3--0--0--0--0--0--0--0--0--0--3h5p3--

Stave 12:

E|---------------------------------------------------------------
B|---------------------------------------------------------------
G|---------------------------------------------------------------
D|---------------------------------------------------------------
A|--8--------8--------8--------10--5--------5--------5--------7--
E|--8--8--8--8--8--8--8--8--8--10--5--5--5--5--5--5--5--5--5--7--

Stave 13:

E|----------------------------------------------------------------------
B|----------------------------------------------------------------------
G|----------------------------------------------------------------------
D|----------------------------------------------------------------------
A|--0--------0--------0---------------0--------0--------0---------------
E|--0--0--0--0--0--0--0--0--0--3h5p3--0--0--0--0--0--0--0--0--0--3h5p3--

http://www.guitartabcreator.com
Guitar Tab Creator is intended to store guitar tab created through the tool. It currently does not support in-line text editing. Any text you place in here will be lost. If you need to comment on your tab, please use the "Tab Notes" section located below.