Sound will begin in 5 seconds

kind of sounds like identity?

Chords
01234567891011121314151617181920212223
E
B
G
D
A
E
B
0 1 2 3 4 5 6 7 8 9 10 11 12 13 14 15 16 17 18 19 20 21 22 23
Song Science #1: How Pros Use 6 Chords to Write Hit Songs
(/) Slide Up  (\) Slide Down  (h) Hammer On  (p) Pull Off  (b) Bend (r) Release (v) Vibrato

Stave 1:

E|------------------------------------------------------------------------------
B|------------------------------------------------------------------------------
G|------------------------------------------------------------------------------
D|------------------------------------------------------------------------------
A|-0----0-------------0----0--------1----0-----------------0----0--------1----0-
E|-0----0-0-0-1-0-3-0-0----0----0-0-1----0-0-0-0-0-1-0-3-0-0----0----0-0-1----0-

Stave 2:

E|-----------------------------------------------------------------------------------------
B|-----------------------------------------------------------------------------------------
G|-----------------------------------------------------------------------------------------
D|-----------------------------------------------------------------------------------------
A|-----------------------------------------------------------------------------------------
E|-0/12-0-0-0-0-12-0-0-0-0-12-0-0-12-0-0-0-0-12-0-0-0-0-10-13-12-0-0-0-0-12-0-0-0-0-12-0-0-

Stave 3:

E|---------------------------------------------------------------------------------------
B|---------------------------------------------------------------------------------------
G|---------------------------------------------------------------------------------------
D|---------------------------------------------------------------------------------------
A|-----------------------3-1--------------------------------------------7p0-8p0-10p0-8p0-
E|-12-0-0-0-0-12-0-0-0-0-3-1-12-0-0-0-0-12-0-0-0-0-12-0-0-12-0-0-0-0-12------------------

Stave 4:

E|-----------------------------------------------------------------------------------------
B|-----------------------------------------------------------------------------------------
G|-----------------------------------------------------------------------------------------
D|-----------------------------------------------------------------------------------------
A|-13p0-12p0-10p0-12p0---------------------------------------------------------------------
E|---------------------12-0-0-0-0-12-0-0-0-0-12-0-0-12-0-0-0-0-12-0-0-0-0-10-13-12-0-0-0-0-

Stave 5:

E|----------------------------------------------------------------------------------------
B|----------------------------------------------------------------------------------------
G|----------------------------------------------------------------------------------------
D|----------------------------------------------------------------------------------------
A|-----------------------------------------3-1--------------------------------------------
E|-12-0-0-0-0-12-0-0-12-0-0-0-0-12-0-0-0-0-3-1-12-0-0-0-0-12-0-0-0-0-12-0-0-12-0-0-0-0-12-

Stave 6:

E|---------------------------------------
B|---------------------------------------
G|---------------------------------------
D|-----------------------12h13p12--------
A|--------5-6-8-12-13-13----------10-8-7-
E|-7-8-10--------------------------------

Stave 7:

E|---------------------------------------------------
B|---------------------------------------------------
G|---------------------------------------------------
D|---------------------------------------------------
A|-0---------0---------0-----0---------0---------3-5-
E|-0-0-0-0-0-0-0-0-0-0-0-0-0-0-0-0-0-0-0-0-0-0-0-3-5-

Stave 8:

E|---------------------------------------------------
B|---------------------------------------------------
G|---------------------------------------------------
D|---------------------------------------------------
A|-0---------0---------0-----0---------0---------3-5-
E|-0-0-0-0-0-0-0-0-0-0-0-0-0-0-0-0-0-0-0-0-0-0-0-3-5-

http://www.guitartabcreator.com
Guitar Tab Creator is intended to store guitar tab created through the tool. It currently does not support in-line text editing. Any text you place in here will be lost. If you need to comment on your tab, please use the "Tab Notes" section located below.