WonderFul Tonight

Chords

01234567891011121314151617181920212223
E
B
G
D
A
E
B
0 1 2 3 4 5 6 7 8 9 10 11 12 13 14 15 16 17 18 19 20 21 22 23
(/) Slide Up  (\) Slide Down  (h) Hammer On  (p) Pull Off  (b) Bend (r) Release (v) Vibrato

Stave 1:

E|--------------------------------------0-----------
B|--------3--------3-----3--------3--------3-----3--
G|-----4--------4--------------2-----2--------2-----
D|--5--------5--------5-----4-----------------------
A|--------------------------------------------------
E|--------------------------------------------------

Stave 2:

E|--------------------------------------2-----------
B|--------------1-----------------3--------3-----3--
G|--------0--------0-----0-----2-----2--------2-----
D|-----2-----2--------2-----0-----------------------
A|--3-----------------------------------------------
E|--------------------------------------------------

							http://www.guitartabcreator.com
Instruments
{"strings":[[[".",".",".",".",".",".",".",".",".",".",".",".",0,".",".","."],[".",".",3,".",".",3,".",3,".",".",3,".",".",3,".",3],[".",4,".",".",4,".",".",".",".",2,".",2,".",".",2,"."],[5,".",".",5,".",".",5,".",4,".",".",".",".",".",".","."],[".",".",".",".",".",".",".",".",".",".",".",".",".",".",".","."],[".",".",".",".",".",".",".",".",".",".",".",".",".",".",".","."]],[[".",".",".",".",".",".",".",".",".",".",".",".",2,".",".","."],[".",".",".",".",1,".",".",".",".",".",3,".",".",3,".",3],[".",".",0,".",".",0,".",0,".",2,".",2,".",".",2,"."],[".",2,".",2,".",".",2,".",0,".",".",".",".",".",".","."],[3,".",".",".",".",".",".",".",".",".",".",".",".",".",".","."],[".",".",".",".",".",".",".",".",".",".",".",".",".",".",".","."]]],"numberofstrings":6,"notes":["E","B","G","D","A","E","B"],"capo":0,"stringnotes":["E4","B3","G3","D3","A2","E2"],"comments":["Stave 1:","Stave 2:"],"timing":[["W","W","W","W","W","W","W","W","W","W","W","W","W","W","W","W"],["W","W","W","W","W","W","W","W","W","W","W","W","W","W","W","W"]],"timingvisible":false,"tabcounter":16,"stave":1,"totalstaves":2,"instrument":"6guitar","selectedtuning":"6_standard","version":"13"}

Member for

6 days 3 hours
About Me
Beginner
Submitted by alx9 on Sun, 2021-01-10 07:43