Sound will begin in 5 seconds

Pentatonic Scale Patterns

01234567891011121314151617181920212223
E
B
G
D
A
E
B
0 1 2 3 4 5 6 7 8 9 10 11 12 13 14 15 16 17 18 19 20 21 22 23
Song Science #1: How Pros Use 6 Chords to Write Hit Songs
(/) Slide Up  (\) Slide Down  (h) Hammer On  (p) Pull Off  (b) Bend (r) Release (v) Vibrato

Stave 1:

E|---------------------0-3-0---------------------|-
B|-----------------0-3-------3-0-----------------|-
G|-------------0-2---------------2-0-------------|-
D|---------0-2-----------------------2-0---------|-
A|-----0-2-------------------------------2-0-----|-
E|-0-3---------------------------------------3-0-|-

Stave 2:

E|---------------------------0-2-3-2-0-------------------------------|-
B|---------------------0-2-3-----------3-2-0-------------------------|-
G|---------------0-2-3-----------------------3-2-0-------------------|-
D|---------0-1-2-----------------------------------2-1-0-------------|-
A|-----0-2-----------------------------------------------2-0---------|-
E|-0-3-------------------------------------------------------3-2-1-0-|-

Stave 3:

E|-------------------7-10-12-10-7-------------------|-
B|--------------8-10--------------10-8--------------|-
G|----------7-9------------------------9-7----------|-
D|------7-9--------------------------------9-7------|-
A|-7-10----------------------------------------10-7-|-
E|--------------------------------------------------|-

Stave 4:

E|--------------------------7-10-11-12-11-10-7------------------------------|-
B|----------------7-8-10-11--------------------11-10-8-7--------------------|-
G|----------7-8-9----------------------------------------9-8-7--------------|-
D|------7-9----------------------------------------------------9-7----------|-
A|-7-10------------------------------------------------------------10-9-8-7-|-
E|--------------------------------------------------------------------------|-

Stave 5:

E|---------------------5-8-5---------------------|-
B|-----------------5-8-------8-5-----------------|-
G|-------------5-7---------------7-5-------------|-
D|---------5-7-----------------------7-5---------|-
A|-----5-7-------------------------------7-5-----|-
E|-5-8---------------------------------------8-5-|-

Stave 6:

E|-------------------------5-7-8-7-5-------------------------|-
B|-------------------5-6-8-----------8-6-5-------------------|-
G|-------------4-5-7-----------------------7-5-4-------------|-
D|-------3-5-7-----------------------------------7-5-3-------|-
A|-3-5-7-----------------------------------------------7-5-3-|-
E|-----------------------------------------------------------|-

http://www.guitartabcreator.com
Guitar Tab Creator is intended to store guitar tab created through the tool. It currently does not support in-line text editing. Any text you place in here will be lost. If you need to comment on your tab, please use the "Tab Notes" section located below.