Sound will begin in 5 seconds

Intermediate/Advanced Stretching Exercises and Scales

01234567891011121314151617181920212223
E
B
G
D
A
E
B
0 1 2 3 4 5 6 7 8 9 10 11 12 13 14 15 16 17 18 19 20 21 22 23
Song Science #1: How Pros Use 6 Chords to Write Hit Songs
(/) Slide Up  (\) Slide Down  (h) Hammer On  (p) Pull Off  (b) Bend (r) Release (v) Vibrato

Stave 1:

E|---------------------------------------------------0-1-2-3-4-|-
B|-----------------------------------------0-1-2-3-4-----------|-
G|-------------------------------0-1-2-3-4---------------------|-
D|---------------------0-1-2-3-4-------------------------------|-
A|-----------0-1-2-3-4-----------------------------------------|-
E|-0-1-2-3-4---------------------------------------------------|-

Stave 2:

E|--------7------------6------------6------------6-----------5-|-
B|------8---8--------8---8--------7---7--------7---7-------7---|-
G|----9-------9----9-------9----9-------9----8-------8---8-----|-
D|-10-----------10-----------10-----------10-----------9-------|-
A|-------------------------------------------------------------|-
E|-------------------------------------------------------------|-

Stave 3:

E|--------------------------5-7-8-8-7-5-------------------------|-
B|--------------------5-6-8-------------8-6-5-------------------|-
G|------------2-4-5-7-------------------------7-5-4-2-----------|-
D|------2-3-5-----------------------------------------5-3-2-----|-
A|--3-5-----------------------------------------------------5-3-|-
E|--------------------------------------------------------------|-

Stave 4:

E|--------------------------5-7-8-7-5-------------------------|-
B|--------------------5-6-8-----------8-6-5-------------------|-
G|--------------4-5-7-----------------------7-5-4-------------|-
D|--------3-5-7-----------------------------------7-5-3-------|-
A|--3-5-7-----------------------------------------------7-5-3-|-
E|------------------------------------------------------------|-

Stave 5:

E|-------------------------------5-7-8-|-8-7-5-------------------------------|-
B|-------------------------5-7-8-------|-------8-7-5-------------------------|-
G|-------------------4-5-7-------------|-------------7-5-4-------------------|-
D|-------------4-5-7-------------------|-------------------7-5-4-------------|-
A|-------3-5-7-------------------------|-------------------------7-5-3-------|-
E|-3-5-7-------------------------------|-------------------------------7-5-3-|-

http://www.guitartabcreator.com
Guitar Tab Creator is intended to store guitar tab created through the tool. It currently does not support in-line text editing. Any text you place in here will be lost. If you need to comment on your tab, please use the "Tab Notes" section located below.