Number 5 bass

Chords

01234567891011121314151617181920212223
E
B
G
D
A
E
B
0 1 2 3 4 5 6 7 8 9 10 11 12 13 14 15 16 17 18 19 20 21 22 23
(/) Slide Up  (\) Slide Down  (h) Hammer On  (p) Pull Off  (b) Bend (r) Release (v) Vibrato

Intro 2x

G|-------------------------------------------------
D|-------------------------------------------------
A|-------1-----------0-----------1-----------0-----
E|-0-2-3---3-2-0-2-3---3-2-0-2-3---3-2-0-2-3---3-2-
A|-------------------------------------------------

Doomy Part

G|-------------------------------------------------------------------------------------
D|-------------------------------------------------------------------------------------
A|-------------------------------------------------------------------------------------
E|-------------------------------------------------------------------------------------
A|-3----------4----1----3----------4----1----7----------8----5----4----------5----3----

Riff 1 (Show)

G|------------------------------------------------------------------------------------------
D|------------------------------------------------------------------------------------------
A|------------------------------------------------------------------------------------------
E|------------------------------------------------------------------------------------------
A|-2----------------------3----------------------2----------------------6----------7----3-3-

Riff 1 (Show) cont.

G|----------------------------------------------------------------------------------------
D|----------------------------------------------------------------------------------------
A|----------------------------------------------------------------------------------------
E|----------------------------------------------------------------------------------------
A|-2----------------------3----------------------2----------------------3v-v-v-v-4v-v-1-1-

Riff 1 (All) 2x

G|-------------------------------------------------------------------
D|-------------------------------------------------------------------
A|---3---2---4---3---2h3-------------------------3---2---4---3---2h3-
E|-------------------------2---2---2-2h3/5\3p2-----------------------
A|-2---2---2---2---2-----3---3---3-------------2---2---2---2---2-----

Stave 6:

G|-------------------
D|-------------------
A|-------------------
E|-------------------
A|-6v-v-v-v-7v-v-3-3-

Stave 7:

G|-------------------------------------------------------------------
D|-------------------------------------------------------------------
A|---3---2---4---3---2h3-------------------------3---2---4---3---2h3-
E|-------------------------2---2---2-2h3p2p0h2-----------------------
A|-2---2---2---2---2-----3---3---3-------------2---2---2---2---2-----

Stave 8:

G|----------------------
D|----------------------
A|----------------------
E|----------------------
A|---3v-v-v-v-4v-v-1-2v-

Riff 2 4x

G|----------------------------------------------------------------
D|----------------------------------------------------------------
A|---3---3---3---3--------2---2---2---2--------6---6---6---6------
E|----------------------------------------------------------------
A|-3---3---3---3---3-1v-2---2---2---2---2-5v-6---6---6---6---6-4v-

Stave 10:

G|----------------------
D|----------------------
A|---5---5---5---5------
E|----------------------
A|-5---5---5---5---5-2v-

Stave 11:

G|-------------------------------------------------------------------------------
D|-------------------------------------------------------------------------------
A|---6---6---6---6-----5---------------------------------------------------------
E|-----------------------------6-------5-------2-------1-------------------------
A|-6---6---6---6---6-4-----------------------------------------------------------

Stave 12:

G|-------------------------------------------------
D|-------------------------------------------------
A|-------------------------------------------------
E|-------1-------------0-------------1-------------
A|-0-1-2---------0-1-2---------0-1-2---------------

Stave 13:

G|-------------------------------------------------
D|-------------------------------------------------
A|-------------------------------------------------
E|-------1-----------1-----------0-----------0-----
A|-0-1-2---2-1-0-1-2---2-1-0-1-2---2-1-0-1-2---2-1-

Stave 14:

G|-------------------------------------------------------------
D|-------------------------------------------------------------
A|-------------------------------------------------------------
E|-------1-----------0--------7v-6v-------------------3v-2v----
A|-0-1-2---2-1-0-1-2---2-1-3v-------7v-------------3v-------1v-

Stave 15:

G|------------------------------------------
D|------------------------------------------
A|------------------------------------------
E|---------------------------------0v-------
A|-3-2-1-3-2-1-0-------4-1-0-4-1-0----------

Stave 16:

G|------------------------------------------------------
D|------------------------------------------------------
A|------------------------------------------------------
E|---------------------------------0v-1v----------------
A|-3-2-1-3-2-1-0-------4-1-0-4-1-0-------4v----------1v-

Stave 17:

G|-----------------------------------------------------------
D|-----------------------------------------------------------
A|-------1-----------1-----------0-----------0-----------1---
E|-0-2-3---3-2-0-2-3---3-2-0-2-3---3-2-0-2-3---3-2-0-2-3---3-
A|-----------------------------------------------------------

Stave 18:

G|----------------------------------------------------------------------
D|----------------------------------------------------------------------
A|----------------------------------------------------------------------
E|------------0v-1v------------------0v-1v------------------0v-1v-------
A|-0----------------4v-1v-3----------------4v-1v-0----------------4v-1v-

Stave 19:

G|----------------------------------------
D|----------------------------------------
A|----------------------------------------
E|----------------------------------------
A|-3----------1h3-1-1-1-1-1-1-1-1-1-1-1-1-

Stave 20:

G|----------------------------------------------------------------------------------------------
D|----------------------------------------------------------------------------------------------
A|----------------------------------------------------------------------------------------------
E|----------------------------------------------------------------------5\3/5------6\5/6--------
A|-0----0v-v-v-0----0v-v-v-0----0-1-0-3-1-0-4-3-1-0----0v-v-v-0----0-0v-------0-0v-------0-0v-v-

Stave 21:

G|-------------------------------------------------------------------------------------
D|-------------------------------------------------------------------------------------
A|-------------------------4-3-1-------------------------------------------------------
E|-------------------------------4-3-1-------------------------------------0v-1v-------
A|-0----0v-v-v-0----0v-v-0-------------3-4-3-1-3-1-0----0v-v-v-0----0v-v-v-------4v-1v-

							http://www.guitartabcreator.com
Instruments
{"title":"Number 5 bass","strings":[[[".",".",".",".",".",".",".",".",".",".",".",".",".",".",".",".",".",".",".",".",".",".",".","."],[".",".",".",".",".",".",".",".",".",".",".",".",".",".",".",".",".",".",".",".",".",".",".","."],[".",".",".",1,".",".",".",".",".",0,".",".",".",".",".",1,".",".",".",".",".",0,".","."],[0,2,3,".",3,2,0,2,3,".",3,2,0,2,3,".",3,2,0,2,3,".",3,2],[".",".",".",".",".",".",".",".",".",".",".",".",".",".",".",".",".",".",".",".",".",".",".","."]],[[".","_","_","_",".","_",".","_",".","_","_","_",".","_",".","_",".","_","_","_",".","_",".","_",".","_","_","_",".","_",".","_"],[".","_","_","_",".","_",".","_",".","_","_","_",".","_",".","_",".","_","_","_",".","_",".","_",".","_","_","_",".","_",".","_"],[".","_","_","_",".","_",".","_",".","_","_","_",".","_",".","_",".","_","_","_",".","_",".","_",".","_","_","_",".","_",".","_"],[".","_","_","_",".","_",".","_",".","_","_","_",".","_",".","_",".","_","_","_",".","_",".","_",".","_","_","_",".","_",".","_"],[3,"_","_","_",4,"_",1,"_",3,"_","_","_",4,"_",1,"_",7,"_","_","_",8,"_",5,"_",4,"_","_","_",5,"_",3,"_"]],[[".","_","_","_","_","_","_","_",".","_","_","_","_","_","_","_",".","_","_","_","_","_","_","_",".","_","_","_",".","_",".","."],[".","_","_","_","_","_","_","_",".","_","_","_","_","_","_","_",".","_","_","_","_","_","_","_",".","_","_","_",".","_",".","."],[".","_","_","_","_","_","_","_",".","_","_","_","_","_","_","_",".","_","_","_","_","_","_","_",".","_","_","_",".","_",".","."],[".","_","_","_","_","_","_","_",".","_","_","_","_","_","_","_",".","_","_","_","_","_","_","_",".","_","_","_",".","_",".","."],[2,"_","_","_","_","_","_","_",3,"_","_","_","_","_","_","_",2,"_","_","_","_","_","_","_",6,"_","_","_",7,"_",3,3]],[[".","_","_","_","_","_","_","_",".","_","_","_","_","_","_","_",".","_","_","_","_","_","_","_",".",".",".",".",".",".",".",".",".","."],[".","_","_","_","_","_","_","_",".","_","_","_","_","_","_","_",".","_","_","_","_","_","_","_",".",".",".",".",".",".",".",".",".","."],[".","_","_","_","_","_","_","_",".","_","_","_","_","_","_","_",".","_","_","_","_","_","_","_",".",".",".",".",".",".",".",".",".","."],[".","_","_","_","_","_","_","_",".","_","_","_","_","_","_","_",".","_","_","_","_","_","_","_",".",".",".",".",".",".",".",".",".","."],[2,"_","_","_","_","_","_","_",3,"_","_","_","_","_","_","_",2,"_","_","_","_","_","_","_",3,"v","v","v","v",4,"v","v",1,1]],[[".",".",".",".",".",".",".",".",".",".",".",".",".",".",".",".",".",".",".",".",".",".",".",".",".",".",".",".",".",".",".",".",".",".",".",".",".",".","."],[".",".",".",".",".",".",".",".",".",".",".",".",".",".",".",".",".",".",".",".",".",".",".",".",".",".",".",".",".",".",".",".",".",".",".",".",".",".","."],[".",3,".",2,".",4,".",3,".",2,"h",3,".",".",".",".",".",".",".",".",".",".",".",".",".",".",".",".",3,".",2,".",4,".",3,".",2,"h",3],[".",".",".",".",".",".",".",".",".",".",".",".",".",2,".",2,".",2,2,"h",3,"/",5,"\\",3,"p",2,".",".",".",".",".",".",".",".",".",".",".","."],[2,".",2,".",2,".",2,".",2,".",".",".",3,".",3,".",3,".",".",".",".",".",".",".",".",".",".",2,".",2,".",2,".",2,".",2,".",".","."]],[[".",".",".",".",".",".",".",".",".","."],[".",".",".",".",".",".",".",".",".","."],[".",".",".",".",".",".",".",".",".","."],[".",".",".",".",".",".",".",".",".","."],[6,"v","v","v","v",7,"v","v",3,3]],[[".",".",".",".",".",".",".",".",".",".",".",".",".",".",".",".",".",".",".",".",".",".",".",".",".",".",".",".",".",".",".",".",".",".",".",".",".",".","."],[".",".",".",".",".",".",".",".",".",".",".",".",".",".",".",".",".",".",".",".",".",".",".",".",".",".",".",".",".",".",".",".",".",".",".",".",".",".","."],[".",3,".",2,".",4,".",3,".",2,"h",3,".",".",".",".",".",".",".",".",".",".",".",".",".",".",".",".",3,".",2,".",4,".",3,".",2,"h",3],[".",".",".",".",".",".",".",".",".",".",".",".",".",2,".",2,".",2,2,"h",3,"p",2,"p",0,"h",2,".",".",".",".",".",".",".",".",".",".",".","."],[2,".",2,".",2,".",2,".",2,".",".",".",3,".",3,".",3,".",".",".",".",".",".",".",".",".",".",2,".",2,".",2,".",2,".",2,".",".","."]],[[".",".",".",".",".",".",".",".",".",".",".","."],[".",".",".",".",".",".",".",".",".",".",".","."],[".",".",".",".",".",".",".",".",".",".",".","."],[".",".",".",".",".",".",".",".",".",".",".","."],[".",3,"v","v","v","v",4,"v","v",1,2,"v"]],[[".",".",".",".",".",".",".",".",".",".",".",".",".",".",".",".",".",".",".",".",".",".",".",".",".",".",".",".",".",".",".",".","."],[".",".",".",".",".",".",".",".",".",".",".",".",".",".",".",".",".",".",".",".",".",".",".",".",".",".",".",".",".",".",".",".","."],[".",3,".",3,".",3,".",3,".",".",".",".",2,".",2,".",2,".",2,".",".",".",".",6,".",6,".",6,".",6,".",".","."],[".",".",".",".",".",".",".",".",".",".",".",".",".",".",".",".",".",".",".",".",".",".",".",".",".",".",".",".",".",".",".",".","."],[3,".",3,".",3,".",3,".",3,1,"v",2,".",2,".",2,".",2,".",2,5,"v",6,".",6,".",6,".",6,".",6,4,"v"]],[[".",".",".",".",".",".",".",".",".",".","."],[".",".",".",".",".",".",".",".",".",".","."],[".",5,".",5,".",5,".",5,".",".","."],[".",".",".",".",".",".",".",".",".",".","."],[5,".",5,".",5,".",5,".",5,2,"v"]],[[".",".",".",".",".",".",".",".",".",".",".","_","_",".","_","_",".","_","_",".","_","_",".","_","_","_","_","_","_","_","_"],[".",".",".",".",".",".",".",".",".",".",".","_","_",".","_","_",".","_","_",".","_","_",".","_","_","_","_","_","_","_","_"],[".",6,".",6,".",6,".",6,".",".",5,"_","_",".","_","_",".","_","_",".","_","_",".","_","_","_","_","_","_","_","_"],[".",".",".",".",".",".",".",".",".",".",".","_","_",6,"_","_",5,"_","_",2,"_","_",1,"_","_","_","_","_","_","_","_"],[6,".",6,".",6,".",6,".",6,4,".","_","_",".","_","_",".","_","_",".","_","_",".","_","_","_","_","_","_","_","_"]],[[".",".",".",".","_","_",".",".",".",".","_","_",".",".",".",".","_","_","_","_"],[".",".",".",".","_","_",".",".",".",".","_","_",".",".",".",".","_","_","_","_"],[".",".",".",".","_","_",".",".",".",".","_","_",".",".",".",".","_","_","_","_"],[".",".",".",1,"_","_",".",".",".",0,"_","_",".",".",".",1,"_","_","_","_"],[0,1,2,".","_","_",0,1,2,".","_","_",0,1,2,".","_","_","_","_"]],[[".",".",".",".",".",".",".",".",".",".",".",".",".",".",".",".",".",".",".",".",".",".",".","."],[".",".",".",".",".",".",".",".",".",".",".",".",".",".",".",".",".",".",".",".",".",".",".","."],[".",".",".",".",".",".",".",".",".",".",".",".",".",".",".",".",".",".",".",".",".",".",".","."],[".",".",".",1,".",".",".",".",".",1,".",".",".",".",".",0,".",".",".",".",".",0,".","."],[0,1,2,".",2,1,0,1,2,".",2,1,0,1,2,".",2,1,0,1,2,".",2,1]],[[".",".",".",".",".",".",".",".",".",".",".",".",".",".",".",".",".",".",".",".","_","_","_","_",".",".",".",".",".",".",".","."],[".",".",".",".",".",".",".",".",".",".",".",".",".",".",".",".",".",".",".",".","_","_","_","_",".",".",".",".",".",".",".","."],[".",".",".",".",".",".",".",".",".",".",".",".",".",".",".",".",".",".",".",".","_","_","_","_",".",".",".",".",".",".",".","."],[".",".",".",1,".",".",".",".",".",0,".",".",".",".",7,"v",6,"v",".",".","_","_","_","_",".",".",3,"v",2,"v",".","."],[0,1,2,".",2,1,0,1,2,".",2,1,3,"v",".",".",".",".",7,"v","_","_","_","_",3,"v",".",".",".",".",1,"v"]],[[".",".",".",".",".",".",".","_","_",".",".",".",".",".",".",".",".","_","_"],[".",".",".",".",".",".",".","_","_",".",".",".",".",".",".",".",".","_","_"],[".",".",".",".",".",".",".","_","_",".",".",".",".",".",".",".",".","_","_"],[".",".",".",".",".",".",".","_","_",".",".",".",".",".",".",0,"v","_","_"],[3,2,1,3,2,1,0,"_","_",4,1,0,4,1,0,".",".","_","_"]],[[".",".",".",".",".",".",".","_","_",".",".",".",".",".",".",".",".",".",".",".",".","_","_","_",".","."],[".",".",".",".",".",".",".","_","_",".",".",".",".",".",".",".",".",".",".",".",".","_","_","_",".","."],[".",".",".",".",".",".",".","_","_",".",".",".",".",".",".",".",".",".",".",".",".","_","_","_",".","."],[".",".",".",".",".",".",".","_","_",".",".",".",".",".",".",0,"v",1,"v",".",".","_","_","_",".","."],[3,2,1,3,2,1,0,"_","_",4,1,0,4,1,0,".",".",".",".",4,"v","_","_","_",1,"v"]],[[".",".",".",".",".",".",".",".",".",".",".",".",".",".",".",".",".",".",".",".",".",".",".",".",".",".",".",".","."],[".",".",".",".",".",".",".",".",".",".",".",".",".",".",".",".",".",".",".",".",".",".",".",".",".",".",".",".","."],[".",".",".",1,".",".",".",".",".",1,".",".",".",".",".",0,".",".",".",".",".",0,".",".",".",".",".",1,"."],[0,2,3,".",3,2,0,2,3,".",3,2,0,2,3,".",3,2,0,2,3,".",3,2,0,2,3,".",3],[".",".",".",".",".",".",".",".",".",".",".",".",".",".",".",".",".",".",".",".",".",".",".",".",".",".",".",".","."]],[[".","_","_","_",".",".",".",".",".",".",".",".",".","_","_","_",".",".",".",".",".",".",".",".",".","_","_","_",".",".",".",".",".",".",".","."],[".","_","_","_",".",".",".",".",".",".",".",".",".","_","_","_",".",".",".",".",".",".",".",".",".","_","_","_",".",".",".",".",".",".",".","."],[".","_","_","_",".",".",".",".",".",".",".",".",".","_","_","_",".",".",".",".",".",".",".",".",".","_","_","_",".",".",".",".",".",".",".","."],[".","_","_","_",0,"v",1,"v",".",".",".",".",".","_","_","_",0,"v",1,"v",".",".",".",".",".","_","_","_",0,"v",1,"v",".",".",".","."],[0,"_","_","_",".",".",".",".",4,"v",1,"v",3,"_","_","_",".",".",".",".",4,"v",1,"v",0,"_","_","_",".",".",".",".",4,"v",1,"v"]],[[".","_","_","_",".",".",".",".",".",".",".",".",".",".",".",".",".",".","."],[".","_","_","_",".",".",".",".",".",".",".",".",".",".",".",".",".",".","."],[".","_","_","_",".",".",".",".",".",".",".",".",".",".",".",".",".",".","."],[".","_","_","_",".",".",".",".",".",".",".",".",".",".",".",".",".",".","."],[3,"_","_","_",1,"h",3,1,1,1,1,1,1,1,1,1,1,1,1]],[[".","_",".",".",".",".",".","_",".",".",".",".",".","_",".",".",".",".",".",".",".",".",".",".","_",".",".",".",".",".","_",".",".",".",".",".",".",".",".",".",".",".",".",".",".",".",".",".",".",".","."],[".","_",".",".",".",".",".","_",".",".",".",".",".","_",".",".",".",".",".",".",".",".",".",".","_",".",".",".",".",".","_",".",".",".",".",".",".",".",".",".",".",".",".",".",".",".",".",".",".",".","."],[".","_",".",".",".",".",".","_",".",".",".",".",".","_",".",".",".",".",".",".",".",".",".",".","_",".",".",".",".",".","_",".",".",".",".",".",".",".",".",".",".",".",".",".",".",".",".",".",".",".","."],[".","_",".",".",".",".",".","_",".",".",".",".",".","_",".",".",".",".",".",".",".",".",".",".","_",".",".",".",".",".","_",".",".",".",5,"\\",3,"/",5,".",".",".",6,"\\",5,"/",6,".",".",".","."],[0,"_",0,"v","v","v",0,"_",0,"v","v","v",0,"_",0,1,0,3,1,0,4,3,1,0,"_",0,"v","v","v",0,"_",0,0,"v",".",".",".",".",".",0,0,"v",".",".",".",".",".",0,0,"v","v"]],[[".","_",".",".",".",".",".","_",".",".",".",".",".",".",".",".",".",".",".",".",".",".",".",".",".","_",".",".",".",".",".","_",".",".",".",".",".",".",".",".",".",".",".","."],[".","_",".",".",".",".",".","_",".",".",".",".",".",".",".",".",".",".",".",".",".",".",".",".",".","_",".",".",".",".",".","_",".",".",".",".",".",".",".",".",".",".",".","."],[".","_",".",".",".",".",".","_",".",".",".",".",4,3,1,".",".",".",".",".",".",".",".",".",".","_",".",".",".",".",".","_",".",".",".",".",".",".",".",".",".",".",".","."],[".","_",".",".",".",".",".","_",".",".",".",".",".",".",".",4,3,1,".",".",".",".",".",".",".","_",".",".",".",".",".","_",".",".",".",".",0,"v",1,"v",".",".",".","."],[0,"_",0,"v","v","v",0,"_",0,"v","v",0,".",".",".",".",".",".",3,4,3,1,3,1,0,"_",0,"v","v","v",0,"_",0,"v","v","v",".",".",".",".",4,"v",1,"v"]]],"numberofstrings":5,"notes":["G","D","A","E","A"],"capo":0,"stringnotes":["G2","D2","A1","E1","A0"],"comments":["Intro 2x","Doomy Part","Riff 1 (Show)","Riff 1 (Show) cont.","Riff 1 (All) 2x","Stave 6:","Stave 7:","Stave 8:","Riff 2 4x","Stave 10:","Stave 11:","Stave 12:","Stave 13:","Stave 14:","Stave 15:","Stave 16:","Stave 17:","Stave 18:","Stave 19:","Stave 20:","Stave 21:"],"timing":[["W","W","W","W","W","W","W","W","W","W","W","W","W","W","W","W","W","W","W","W","W","W","W","W"],["W",null,null,null,"W",null,"W",null,"W",null,null,null,"W",null,"W",null,"W",null,null,null,"W",null,"W",null,"W",null,null,null,"W",null,"W"],["W","W",null,null,null,null,null,null,"W",null,null,null,null,null,null,null,"W",null,null,null,null,null,null,null,"W",null,null,null,"W",null,"W","W"],["W",null,null,null,null,null,null,null,"W",null,null,null,null,null,null,null,"W",null,null,null,null,null,null,null,"W",null,null,null,null,"W",null,"W","W","W"],["W","W","W","W","W","W","W","W","W","W",null,"W","W","W","W","W","W","W","W",null,"W",null,"W",null,"W",null,"W","W","W","W","W","W","W","W","W","W","W",null,"W"],["W",null,null,null,null,"W",null,null,"W","W"],["W","W","W","W","W","W","W","W","W","W",null,"W","W","W","W","W","W","W","W","W","W","W","W",null,"W",null,"W","W","W","W","W","W","W","W","W","W","W",null,"W"],["W","W",null,null,null,"W","W",null,"W","W","W"],["W","W","W","W","W","W","W","W","W","W",null,"W","W","W","W","W","W","W","W","W","W",null,"W","W","W","W","W","W","W","W","W","W",null,"W","W","W"],["W","W","W","W","W","W","W","W","W","W"],["W","W","W","W","W","W","W","W","W","W","W",null,"W","W","W",null,"W",null,"W","W",null,null,"W"],["W","W","W","W",null,null,"W","W","W","W",null,null,"W","W","W","W"],["W","W","W","W","W","W","W","W","W","W","W","W","W","W","W","W","W","W","W","W","W","W","W","W"],["W","W","W","W","W","W","W","W","W","W","W","W","W",null,"W",null,"W",null,"W",null,null,null,null,null,"W",null,"W",null,"W",null,"W"],["W","W","W","W","W","W","W",null,null,"W","W","W","W","W","W","W",null,null,"W","W","W","W","W","W","W",null,"W","W","W","W","W","W","W"],["W","W","W","W","W","W","W",null,null,"W","W","W","W","W","W","W",null,"W",null,"W",null,null,null,null,"W"],["W","W","W","W","W","W","W","W","W","W","W","W","W","W","W","W","W","W","W","W","W","W","W","W","W","W","W","W","W","W","W","W","W"],["W",null,null,null,"W",null,"W",null,"W",null,"W",null,"W",null,null,null,"W",null,"W",null,"W",null,"W",null,"W",null,null,null,"W",null,"W",null,"W",null,"W"],["W",null,null,null,"W",null,"W","W","W","W","W","W","W","W","W","W","W","W","W"],["W",null,"W","W","W","W","W","W","W",null,null,null,"W",null,"W","W","W","W","W","W","W","W","W","W",null,"W",null,null,null,"W",null,"W","W",null,"W","W","W",null,"W","W","W",null,"W",null,"W",null,"W","W","W"],["W",null,"W",null,null,null,"W",null,"W",null,null,"W","W","W","W","W","W","W","W","W","W","W","W","W","W",null,"W",null,null,null,"W",null,"W",null,null,null,"W",null,"W",null,"W",null,"W"]],"timingvisible":false,"tabcounter":44,"stave":20,"totalstaves":21,"instrument":"5bass","selectedtuning":"5bass_standard","version":"13"}

Member for

8 months
Submitted by alpike on Wed, 2020-03-25 20:35