New riff in 3/4

Chords

01234567891011121314151617181920212223
E
B
G
D
A
E
B
0 1 2 3 4 5 6 7 8 9 10 11 12 13 14 15 16 17 18 19 20 21 22 23
(/) Slide Up  (\) Slide Down  (h) Hammer On  (p) Pull Off  (b) Bend (r) Release (v) Vibrato

Stave 1:

E|------------------------------------------------------------------------------------
B|------------------------------------------------------------------------------------
G|------------------------------------------------------------------------------------
D|------------------------------------------------------------------------------------
A|------------------------------------------------------------------------------------
E|---------8-------------6--8------8------8---------8-------------6--8------8------8--
B|--8--11-----11--8--11--------11-----10-----8--11-----11--8--11--------11-----10-----

Stave 2:

E|-----------------------------------------------------------------------------
B|-----------------------------------------------------------------------------
G|-----------------------------------------------------------------------------
D|-----------------------------------------------------------------------------
A|-----------------------------------------------------------------------------
E|--------4-----------7--4--------------------3------------------8-------------
B|--4--7-----7--4--7--------7--6--4--6--3--6-----6--3--6--7--10-----10--7--10--

Stave 3:

E|------------------------------------------------------------------------------------
B|------------------------------------------------------------------------------------
G|------------------------------------------------------------------------------------
D|------------------------------------------------------------------------------------
A|------------------------------------------------------------------------------------
E|---------8-------------6--8------8------8---------8-------------6--8------8------8--
B|--8--11-----11--8--11--------11-----10-----8--11-----11--8--11--------11-----10-----

Stave 4:

E|--------------------------------------------------------------------------
B|--------------------------------------------------------------------------
G|--------------------------------------------------------------------------
D|--------------------------------------------------------------------------
A|--------------------------------------------------------3-----------------
E|--------4-----------7--4--------------------3--------------6--4--3--1--0--
B|--4--7-----7--4--7--------7--6--4--6--3--6-----6--3--6--------------------

Harmony

E|--------------------------------------------------------------------------------------------
B|--------------------------------------------------------------------------------------------
G|--------------------------------------------------------------------------------------------
D|--------------------------------------------------------------------------------------------
A|---------10-------------8--10------10------10---------10-------------8--10------10------10--
E|--8--11------11--8--11---------11------10------8--11------11--8--11---------11------10------
B|--------------------------------------------------------------------------------------------

Stave 6:

E|------------------------------------------------------------------------------
B|------------------------------------------------------------------------------
G|------------------------------------------------------------------------------
D|------------------------------------------------------------------------------
A|--------6-----------9--6--------------------5------------------10-------------
E|--4--7-----7--4--7--------7--6--4--6--3--6-----6--3--6--7--10------10--7--10--
B|------------------------------------------------------------------------------

Stave 7:

E|--------------------------------------------------------------------------------------------
B|--------------------------------------------------------------------------------------------
G|--------------------------------------------------------------------------------------------
D|--------------------------------------------------------------------------------------------
A|---------10-------------8--10------10------10---------10-------------8--10------10------10--
E|--8--11------11--8--11---------11------10------8--11------11--8--11---------11------10------
B|--------------------------------------------------------------------------------------------

Stave 8:

E|-----------------------------------------------------------------------------
B|-----------------------------------------------------------------------------
G|-----------------------------------------------------------------------------
D|-----------------------------------------------------------------------------
A|--------6-----------9--6--------------------5-----------10--8----------------
E|--4--7-----7--4--7--------7--6--4--6--3--6-----6--3--6---------11--10--8--7--
B|-----------------------------------------------------------------------------

							http://www.guitartabcreator.com
Instruments
{"title":"New riff in 3/4","strings":[[[".",".",".",".",".",".",".",".",".",".",".",".",".",".",".",".",".",".",".",".",".",".",".","."],[".",".",".",".",".",".",".",".",".",".",".",".",".",".",".",".",".",".",".",".",".",".",".","."],[".",".",".",".",".",".",".",".",".",".",".",".",".",".",".",".",".",".",".",".",".",".",".","."],[".",".",".",".",".",".",".",".",".",".",".",".",".",".",".",".",".",".",".",".",".",".",".","."],[".",".",".",".",".",".",".",".",".",".",".",".",".",".",".",".",".",".",".",".",".",".",".","."],[".",".",8,".",".",".",6,8,".",8,".",8,".",".",8,".",".",".",6,8,".",8,".",8],[8,11,".",11,8,11,".",".",11,".",10,".",8,11,".",11,8,11,".",".",11,".",10,"."]],[[".",".",".",".",".",".",".",".",".",".",".",".",".",".",".",".",".",".",".",".",".",".",".","."],[".",".",".",".",".",".",".",".",".",".",".",".",".",".",".",".",".",".",".",".",".",".",".","."],[".",".",".",".",".",".",".",".",".",".",".",".",".",".",".",".",".",".",".",".",".",".",".","."],[".",".",".",".",".",".",".",".",".",".",".",".",".",".",".",".",".",".",".",".",".",".",".","."],[".",".",".",".",".",".",".",".",".",".",".",".",".",".",".",".",".",".",".",".",".",".",".","."],[".",".",4,".",".",".",7,4,".",".",".",".",".",".",3,".",".",".",".",".",8,".",".","."],[4,7,".",7,4,7,".",".",7,6,4,6,3,6,".",6,3,6,7,10,".",10,7,10]],[[".",".",".",".",".",".",".",".",".",".",".",".",".",".",".",".",".",".",".",".",".",".",".","."],[".",".",".",".",".",".",".",".",".",".",".",".",".",".",".",".",".",".",".",".",".",".",".","."],[".",".",".",".",".",".",".",".",".",".",".",".",".",".",".",".",".",".",".",".",".",".",".","."],[".",".",".",".",".",".",".",".",".",".",".",".",".",".",".",".",".",".",".",".",".",".",".","."],[".",".",".",".",".",".",".",".",".",".",".",".",".",".",".",".",".",".",".",".",".",".",".","."],[".",".",8,".",".",".",6,8,".",8,".",8,".",".",8,".",".",".",6,8,".",8,".",8],[8,11,".",11,8,11,".",".",11,".",10,".",8,11,".",11,8,11,".",".",11,".",10,"."]],[["_",".",".",".",".",".",".",".",".",".",".",".",".",".",".",".",".",".",".",".",".",".",".","."],["_",".",".",".",".",".",".",".",".",".",".",".",".",".",".",".",".",".",".",".",".",".",".","."],["_",".",".",".",".",".",".",".",".",".",".",".",".",".",".",".",".",".",".",".",".",".",".","."],["_",".",".",".",".",".",".",".",".",".",".",".",".",".",".",".",".",".",".",".",".",".",".","."],["_",".",".",".",".",".",".",".",".",".",".",".",".",".",".",".",".",".",3,".",".",".",".","."],["_",".",4,".",".",".",7,4,".",".",".",".",".",".",3,".",".",".",".",6,4,3,1,0],[4,7,".",7,4,7,".",".",7,6,4,6,3,6,".",6,3,6,".",".",".",".",".","."]],[[".",".",".",".",".",".",".",".",".",".",".",".",".",".",".",".",".",".",".",".",".",".",".","."],[".",".",".",".",".",".",".",".",".",".",".",".",".",".",".",".",".",".",".",".",".",".",".","."],[".",".",".",".",".",".",".",".",".",".",".",".",".",".",".",".",".",".",".",".",".",".",".","."],[".",".",".",".",".",".",".",".",".",".",".",".",".",".",".",".",".",".",".",".",".",".",".","."],[".",".",10,".",".",".",8,10,".",10,".",10,".",".",10,".",".",".",8,10,".",10,".",10],[8,11,".",11,8,11,".",".",11,".",10,".",8,11,".",11,8,11,".",".",11,".",10,"."],[".",".",".",".",".",".",".",".",".",".",".",".",".",".",".",".",".",".",".",".",".",".",".","."]],[[".",".",".",".",".",".",".",".",".",".",".",".",".",".",".",".",".",".",".",".",".",".",".","."],[".",".",".",".",".",".",".",".",".",".",".",".",".",".",".",".",".",".",".",".",".",".",".","."],[".",".",".",".",".",".",".",".",".",".",".",".",".",".",".",".",".",".",".",".",".",".",".","."],[".",".",".",".",".",".",".",".",".",".",".",".",".",".",".",".",".",".",".",".",".",".",".","."],[".",".",6,".",".",".",9,6,".",".",".",".",".",".",5,".",".",".",".",".",10,".",".","."],[4,7,".",7,4,7,".",".",7,6,4,6,3,6,".",6,3,6,7,10,".",10,7,10],[".",".",".",".",".",".",".",".",".",".",".",".",".",".",".",".",".",".",".",".",".",".",".","."]],[[".",".",".",".",".",".",".",".",".",".",".",".",".",".",".",".",".",".",".",".",".",".",".","."],[".",".",".",".",".",".",".",".",".",".",".",".",".",".",".",".",".",".",".",".",".",".",".","."],[".",".",".",".",".",".",".",".",".",".",".",".",".",".",".",".",".",".",".",".",".",".",".","."],[".",".",".",".",".",".",".",".",".",".",".",".",".",".",".",".",".",".",".",".",".",".",".","."],[".",".",10,".",".",".",8,10,".",10,".",10,".",".",10,".",".",".",8,10,".",10,".",10],[8,11,".",11,8,11,".",".",11,".",10,".",8,11,".",11,8,11,".",".",11,".",10,"."],[".",".",".",".",".",".",".",".",".",".",".",".",".",".",".",".",".",".",".",".",".",".",".","."]],[[".",".",".",".",".",".",".",".",".",".",".",".",".",".",".",".",".",".",".",".",".",".",".","."],[".",".",".",".",".",".",".",".",".",".",".",".",".",".",".",".",".",".",".",".",".",".",".","."],[".",".",".",".",".",".",".",".",".",".",".",".",".",".",".",".",".",".",".",".",".",".",".","."],[".",".",".",".",".",".",".",".",".",".",".",".",".",".",".",".",".",".",".",".",".",".",".","."],[".",".",6,".",".",".",9,6,".",".",".",".",".",".",5,".",".",".",10,8,".",".",".","."],[4,7,".",7,4,7,".",".",7,6,4,6,3,6,".",6,3,6,".",".",11,10,8,7],[".",".",".",".",".",".",".",".",".",".",".",".",".",".",".",".",".",".",".",".",".",".",".","."]]],"numberofstrings":7,"notes":["E","B","G","D","A","E","B"],"capo":0,"stringnotes":["E3","B2","G2","D2","A1","E1","B0"],"comments":["Stave 1:","Stave 2:","Stave 3:","Stave 4:","Harmony","Stave 6:","Stave 7:","Stave 8:"],"timing":[["W","W","W","W","W","W","W","W","W","W","W","W","W","W","W","W","W","W","W","W","W","W","W","W"],["W","W","W","W","W","W","W","W","W","W","W","W","W","W","W","W","W","W","W","W","W","W","W","W"],["W","W","W","W","W","W","W","W","W","W","W","W","W","W","W","W","W","W","W","W","W","W","W","W"],["W","W","W","W","W","W","W","W","W","W","W","W","W","W","W","W","W","W","W","W","W","W","W","W",null,"W"],["W","W","W","W","W","W","W","W","W","W","W","W","W","W","W","W","W","W","W","W","W","W","W","W"],["W","W","W","W","W","W","W","W","W","W","W","W","W","W","W","W","W","W","W","W","W","W","W","W"],["W","W","W","W","W","W","W","W","W","W","W","W","W","W","W","W","W","W","W","W","W","W","W","W"],["W","W","W","W","W","W","W","W","W","W","W","W","W","W","W","W","W","W","W","W","W","W","W","W"]],"timingvisible":false,"tabcounter":24,"stave":7,"totalstaves":8,"instrument":"7guitar","selectedtuning":"7_standard","version":"13"}

Member for

8 months 1 week
Submitted by alpike on Tue, 2020-03-24 21:12