CornTeen

Chords

01234567891011121314151617181920212223
E
B
G
D
A
E
B
0 1 2 3 4 5 6 7 8 9 10 11 12 13 14 15 16 17 18 19 20 21 22 23
(/) Slide Up  (\) Slide Down  (h) Hammer On  (p) Pull Off  (b) Bend (r) Release (v) Vibrato

Intro (8x)

E|--------------------------------------------------------------------
B|--------------------------------------------------------------------
G|--------------------------------------------------------------------
D|--------------------------------------------------------------------
A|--------------------------------------------------------------------
E|--------------------------------------------------------------------
A|--5--5--5--5--5--5--5--5--5--5--5--5--4--4--4--4--4--4--3--3--3--3--

Riff 1 with band stops

E|--------------------------------------------------------------------------------------------------
B|--------------------------------------------------------------------------------------------------
G|--------------------------------------------------------------------------------------------------
D|--------------------------------------------------------------------------------------------------
A|--------------------------------------------------------------------------------------------------
E|-----------------------------------------------------------------------------5-----6-----5-----4--
A|--5--6--5--8--5--6--5--3--5--3--5--2--3--2--3--2--5--6--5--8--5--6--5--5--6-----7-----6-----5-----

Riff 1 with band stops continued

E|-------------------------------------------------------------------------------------------------------------------
B|-------------------------------------------------------------------------------------------------------------------
G|-------------------------------------------------------------------------------------------------------------------
D|-------------------------------------------------------------------------------------------------------------------
A|-------------------------------------------------------------------------------------------------------------------
E|----------------------------------------------------------------------------8--6--5-----6--------------------------
A|--5--6--5--8--5--6--5--5--6--9--6--9--7--10--7--10--5--6--5--8--5--6--5--5-----------8--6--------------------------

Riff 1 together is the same as above, but with this at the end instead of holding the chord. (4x and hold the chord again on the last time)

E|--------------------------
B|--------------------------
G|--------------------------
D|--------------------------
A|--------------------------
E|--8--6--5-----6--5--------
A|-----------8--------8--6--

Riff 2 (2x) The v means trem pick

E|------------------------------------------------------------------------------------------------
B|------------------------------------------------------------------------------------------------
G|------------------------------------------------------------------------------------------------
D|------------------------------------------------------------------------------------------------
A|------------------------------------------------------------------------------------------------
E|------------------------0h5h8-----------0h6h9---------------------------------0--1--3--1--3--4--
A|--5v--v--4v--1v--0v--v---------0--0--0---------0--0--0--5v--v--7v--8v--0v--v--0--1--3--1--3--4--

Intro again

E|--------------------------------------------------------------------------------------------------------------------------------------------
B|--------------------------------------------------------------------------------------------------------------------------------------------
G|--------------------------------------------------------------------------------------------------------------------------------------------
D|--------------------------------------------------------------------------------------------------------------------------------------------
A|--------------------------------------------------------------------------------------------------------------------------------------------
E|--------------------------------------------------------------------------------------------------------------------------------------------
A|--5--5--5--5--5--5--5--5--5--5--5--5--4--4--4--4--4--4--3--3--3--3-----5--5--5--5--5--5--5--5--5--5--5--5--4--4--4--4--4--4--3--3--3--3-----

Intro again but octave up

E|--------------------------------------------------------------------------------------------------------------------------------------------
B|--------------------------------------------------------------------------------------------------------------------------------------------
G|--------------------------------------------------------------------------------------------------------------------------------------------
D|--------------------------------------------------------------------------------------------------------------------------------------------
A|--5--5--5--5--5--5--5--5--5--5--5--5--4--4--4--4--4--4--3--3--3--3-----5--5--5--5--5--5--5--5--5--5--5--5--4--4--4--4--4--4--3--3--3--3-----
E|--------------------------------------------------------------------------------------------------------------------------------------------
A|--------------------------------------------------------------------------------------------------------------------------------------------

Play Riffs 1 and 2 again, then this

E|--------------------------------------------------------------------------------------------------------------------------------------------------------
B|--------------------------------------------------------------------------------------------------------------------------------------------------------
G|--------------------------------------------------------------------------------------------------------------------------------------------------------
D|--------------------------------------------------------------------------------------------------------------------------------------------------------
A|--------------------------------------------------------------------------------------------------------------------------------------------------------
E|--5-----4--1--0-----------5-----7--8--0-----------------------5-----4--1--0--------5-----7--8--------------------------------------5--------------------
A|--5-----4--1--0-----------5-----7--8--0-----0--1--3--1--3--4--5-----4--1--0--------5-----7--8--0--1--3--1--3--4--4--5--7--5--7--8--5--------------------

Intro to Hammer Time

E|--------------------------------------------------------------------------------------------------
B|--------------------------------------------------------------------------------------------------
G|--------------------------------------------------------------------------------------------------
D|--------------------2--3--------------------2--3--------------------2--3--------------------2--3--
A|-----------0--3--5-----------------0--3--5-----------------0--3--5-----------------0--3--5--------
E|--0--3--5-----------------0--3--5-----------------0--3--5-----------------0--3--5-----------------
A|--------------------------------------------------------------------------------------------------

Intro to Hammer Time continued

E|-----------------------------------------------------------------------------------------
B|-----------------------------------------------------------------------------------------
G|-----------------------------------------------------------------------------------------
D|-----------------------------------------------------------------------------------------
A|--------------------2--3--------------------2--3--------------------2--3-----------------
E|-----------0--3--5-----------------0--3--5-----------------0--3--5-----------------0--3--
A|--0--3--5-----------------0--3--5-----------------0--3--5-----------------0--3--5--------

Hammer Time A  (play each one of thes 4 times, I didn't want to type them all out)

E|--------------------------------------------------------------------------------------------------------------------------------------
B|--------------------------------------------------------------------------------------------------------------------------------------
G|--------------------------------------------------------------------------------------------------------------------------------------
D|--------------------0--1--------------------------------2--3--------------------------------0--1--------------------------------2--3--
A|-----------0--1--3-----------------------------0--3--5-----------------------------0--1--3-----------------------------0--3--5--------
E|--0--1--3-----------------------------0--3--5-----------------------------0--1--3-----------------------------0--3--5-----------------
A|--------------------------------------------------------------------------------------------------------------------------------------

Hammer Time B  (play each 4x)

E|----------------------------------------------------------------------------------------------------------------------------------
B|----------------------------------------------------------------------------------------------------------------------------------
G|----------------------------------------------------------------------------------------------------------------------------------
D|------------------------9--10----------------------------7--8------------------------------9--10----------------------------7--8--
A|-------------0--10--12-------------------------0--8--10-------------------------0--10--12-------------------------0--8--10--------
E|--0--10--12--------------------------0--8--10------------------------0--10--12--------------------------0--8--10------------------
A|----------------------------------------------------------------------------------------------------------------------------------

Hammer Time C  (play each 4x)

E|----------------------------------------------------------------------------------------------------------------------------------
B|----------------------------------------------------------------------------------------------------------------------------------
G|----------------------7--8------------------------------9--10----------------------------7--8------------------------------9--10--
D|------------0--8--10-------------------------0--10--12-------------------------0--8--10-------------------------0--10--12---------
A|--0--8--10------------------------0--10--12--------------------------0--8--10------------------------0--10--12--------------------
E|----------------------------------------------------------------------------------------------------------------------------------
A|----------------------------------------------------------------------------------------------------------------------------------

Hammer Time D  (play this one 8x)

E|-------------------------------
B|-------------------------------
G|-------------------------------
D|------------------------9--10--
A|-------------0--10--12---------
E|-----10--12--------------------
A|-------------------------------

Guitar harmony thingy (play this part 2x)

E|------------------------------------------------------------------------------
B|------------------------------------------------------------------------------
G|------------------------------------------------------------------------------
D|------------------------------------------------------------------------------
A|--12-----------10--12--10-----------------------------------------------------
E|------------------------------------12--12-----------10--12--10-----8--7------
A|--------------------------------------------------------------------------10--

Chord holdin' part

E|--------------------------------------------------------------------------------------------------------------------------------
B|--------------------------------------------------------------------------------------------------------------------------------
G|--------------------------------------------------------------------------------------------------------------------------------
D|--------------------------------------------------------------------------------------------------------------------------------
A|--------------5/7\5--------2--2---------------------------5--------------5/7\5-----------2--2-----------------------------------
E|--0-----------3-5-3--------0--0-----------5/7\5-----3--2--3--0-----------3-5-3-----------0--0--------5/7\5--------------------
A|--0---------------------------------------5-7-5-----3--2-----0---------------------------------------5-7-5--------------------

Ba-du-dun-dun Ba-du-dun-dun Dun-dun (goes a lot of times through the wah part, til the drums kick in)

E|-----------------------------------------------
B|-----------------------------------------------
G|-----------------------------------------------
D|-----------------------------------------------
A|-----------------------------------------------
E|-----------------------------------------------
A|--5--5--5-----5-----5--5--5-----5-----5-----5--

Ba-du-duns with more notes! (this should 6 more low open notes on the end, but the line ended, and I wasn't wasting a whole line for it)

E|--------------------------------------------------------------------------------------------------------------------------------------------------------------
B|--------------------------------------------------------------------------------------------------------------------------------------------------------------
G|--------------------------------------------------------------------------------------------------------------------------------------------------------------
D|--------------------------------------------------------------------------------------------------------------------------------------------------------------
A|--------------------------------------------------------------------------------------------------------------------------------------------------------------
E|--------------------------------------------------------------------------------------------------------------------------------------------------------------
A|--5--5--5-----5-----5-----5-----5-----5-----5-----4--4--4-----4-----4-----1--1--1-----1-----1-----0--0--0-----0-----0-----0-----0-----0-----0-----0--0--0-----

Same as above, ran out of space, there should be 2 more 4's at the end

E|-----------------------------------------------------------------------------------------------------------------------------------------------------------
B|-----------------------------------------------------------------------------------------------------------------------------------------------------------
G|-----------------------------------------------------------------------------------------------------------------------------------------------------------
D|-----------------------------------------------------------------------------------------------------------------------------------------------------------
A|-----------------------------------------------------------------------------------------------------------------------------------------------------------
E|-----------------------------------------------------------------------------------------------------------------------------------------------------------
A|--5--5--5-----5-----5-----5-----5-----5-----5-----7--7--7-----7-----7-----8--8--8-----8-----8-----0--0--0-----0--0--0--0--0--0-----4--4--4-----4--4--4--4--

							http://www.guitartabcreator.com
Instruments
{"strings":[[[".",".",".",".",".",".",".",".",".",".",".",".",".",".",".",".",".",".",".",".",".","."],[".",".",".",".",".",".",".",".",".",".",".",".",".",".",".",".",".",".",".",".",".","."],[".",".",".",".",".",".",".",".",".",".",".",".",".",".",".",".",".",".",".",".",".","."],[".",".",".",".",".",".",".",".",".",".",".",".",".",".",".",".",".",".",".",".",".","."],[".",".",".",".",".",".",".",".",".",".",".",".",".",".",".",".",".",".",".",".",".","."],[".",".",".",".",".",".",".",".",".",".",".",".",".",".",".",".",".",".",".",".",".","."],[5,5,5,5,5,5,5,5,5,5,5,5,4,4,4,4,4,4,3,3,3,3]],[[".",".",".",".",".",".",".",".",".",".",".",".",".",".",".",".",".",".",".",".",".",".",".",".",".",".",".",".",".",".",".","."],[".",".",".",".",".",".",".",".",".",".",".",".",".",".",".",".",".",".",".",".",".",".",".",".",".",".",".",".",".",".",".","."],[".",".",".",".",".",".",".",".",".",".",".",".",".",".",".",".",".",".",".",".",".",".",".",".",".",".",".",".",".",".",".","."],[".",".",".",".",".",".",".",".",".",".",".",".",".",".",".",".",".",".",".",".",".",".",".",".",".",".",".",".",".",".",".","."],[".",".",".",".",".",".",".",".",".",".",".",".",".",".",".",".",".",".",".",".",".",".",".",".",".",".",".",".",".",".",".","."],[".",".",".",".",".",".",".",".",".",".",".",".",".",".",".",".",".",".",".",".",".",".",".",".",".",5,".",6,".",5,".",4],[5,6,5,8,5,6,5,3,5,3,5,2,3,2,3,2,5,6,5,8,5,6,5,5,6,".",7,".",6,".",5,"."]],[[".",".",".",".",".",".",".",".",".",".",".",".",".",".",".",".",".",".",".",".",".",".",".",".",".",".",".",".",".","_","_","_","_","_","_","_","_"],[".",".",".",".",".",".",".",".",".",".",".",".",".",".",".",".",".",".",".",".",".",".",".",".",".",".",".",".",".","_","_","_","_","_","_","_","_"],[".",".",".",".",".",".",".",".",".",".",".",".",".",".",".",".",".",".",".",".",".",".",".",".",".",".",".",".",".","_","_","_","_","_","_","_","_"],[".",".",".",".",".",".",".",".",".",".",".",".",".",".",".",".",".",".",".",".",".",".",".",".",".",".",".",".",".","_","_","_","_","_","_","_","_"],[".",".",".",".",".",".",".",".",".",".",".",".",".",".",".",".",".",".",".",".",".",".",".",".",".",".",".",".",".","_","_","_","_","_","_","_","_"],[".",".",".",".",".",".",".",".",".",".",".",".",".",".",".",".",".",".",".",".",".",".",".",".",8,6,5,".",6,"_","_","_","_","_","_","_","_"],[5,6,5,8,5,6,5,5,6,9,6,9,7,10,7,10,5,6,5,8,5,6,5,5,".",".",".",8,6,"_","_","_","_","_","_","_","_"]],[[".",".",".",".",".",".",".","."],[".",".",".",".",".",".",".","."],[".",".",".",".",".",".",".","."],[".",".",".",".",".",".",".","."],[".",".",".",".",".",".",".","."],[8,6,5,".",6,5,".","."],[".",".",".",8,".",".",8,6]],[[".",".",".",".",".",".",".",".",".",".",".",".",".",".",".",".",".",".",".",".",".",".",".",".",".",".",".",".",".",".",".",".",".",".",".",".",".",".",".",".",".","."],[".",".",".",".",".",".",".",".",".",".",".",".",".",".",".",".",".",".",".",".",".",".",".",".",".",".",".",".",".",".",".",".",".",".",".",".",".",".",".",".",".","."],[".",".",".",".",".",".",".",".",".",".",".",".",".",".",".",".",".",".",".",".",".",".",".",".",".",".",".",".",".",".",".",".",".",".",".",".",".",".",".",".",".","."],[".",".",".",".",".",".",".",".",".",".",".",".",".",".",".",".",".",".",".",".",".",".",".",".",".",".",".",".",".",".",".",".",".",".",".",".",".",".",".",".",".","."],[".",".",".",".",".",".",".",".",".",".",".",".",".",".",".",".",".",".",".",".",".",".",".",".",".",".",".",".",".",".",".",".",".",".",".",".",".",".",".",".",".","."],[".",".",".",".",".",".",".",".",".",".",0,"h",5,"h",8,".",".",".",0,"h",6,"h",9,".",".",".",".",".",".",".",".",".",".",".",".",".",0,1,3,1,3,4],[5,"v","v",4,"v",1,"v",0,"v","v",".",".",".",".",".",0,0,0,".",".",".",".",".",0,0,0,5,"v","v",7,"v",8,"v",0,"v","v",0,1,3,1,3,4]],[[".",".",".",".",".",".",".",".",".",".",".",".",".",".",".",".",".",".",".",".",".",".","_",".",".",".",".",".",".",".",".",".",".",".",".",".",".",".",".",".",".",".",".",".",".","_"],[".",".",".",".",".",".",".",".",".",".",".",".",".",".",".",".",".",".",".",".",".",".","_",".",".",".",".",".",".",".",".",".",".",".",".",".",".",".",".",".",".",".",".",".",".","_"],[".",".",".",".",".",".",".",".",".",".",".",".",".",".",".",".",".",".",".",".",".",".","_",".",".",".",".",".",".",".",".",".",".",".",".",".",".",".",".",".",".",".",".",".",".","_"],[".",".",".",".",".",".",".",".",".",".",".",".",".",".",".",".",".",".",".",".",".",".","_",".",".",".",".",".",".",".",".",".",".",".",".",".",".",".",".",".",".",".",".",".",".","_"],[".",".",".",".",".",".",".",".",".",".",".",".",".",".",".",".",".",".",".",".",".",".","_",".",".",".",".",".",".",".",".",".",".",".",".",".",".",".",".",".",".",".",".",".",".","_"],[".",".",".",".",".",".",".",".",".",".",".",".",".",".",".",".",".",".",".",".",".",".","_",".",".",".",".",".",".",".",".",".",".",".",".",".",".",".",".",".",".",".",".",".",".","_"],[5,5,5,5,5,5,5,5,5,5,5,5,4,4,4,4,4,4,3,3,3,3,"_",5,5,5,5,5,5,5,5,5,5,5,5,4,4,4,4,4,4,3,3,3,3,"_"]],[[".",".",".",".",".",".",".",".",".",".",".",".",".",".",".",".",".",".",".",".",".",".","_",".",".",".",".",".",".",".",".",".",".",".",".",".",".",".",".",".",".",".",".",".",".","_"],[".",".",".",".",".",".",".",".",".",".",".",".",".",".",".",".",".",".",".",".",".",".","_",".",".",".",".",".",".",".",".",".",".",".",".",".",".",".",".",".",".",".",".",".",".","_"],[".",".",".",".",".",".",".",".",".",".",".",".",".",".",".",".",".",".",".",".",".",".","_",".",".",".",".",".",".",".",".",".",".",".",".",".",".",".",".",".",".",".",".",".",".","_"],[".",".",".",".",".",".",".",".",".",".",".",".",".",".",".",".",".",".",".",".",".",".","_",".",".",".",".",".",".",".",".",".",".",".",".",".",".",".",".",".",".",".",".",".",".","_"],[5,5,5,5,5,5,5,5,5,5,5,5,4,4,4,4,4,4,3,3,3,3,"_",5,5,5,5,5,5,5,5,5,5,5,5,4,4,4,4,4,4,3,3,3,3,"_"],[".",".",".",".",".",".",".",".",".",".",".",".",".",".",".",".",".",".",".",".",".",".","_",".",".",".",".",".",".",".",".",".",".",".",".",".",".",".",".",".",".",".",".",".",".","_"],[".",".",".",".",".",".",".",".",".",".",".",".",".",".",".",".",".",".",".",".",".",".","_",".",".",".",".",".",".",".",".",".",".",".",".",".",".",".",".",".",".",".",".",".",".","_"]],[[".","_",".",".",".","_","_","_",".","_",".",".",".","_",".",".",".",".",".",".",".","_",".",".",".","_","_",".","_",".",".",".",".",".",".",".",".",".",".",".",".",".",".",".","_","_","_","_","_","_"],[".","_",".",".",".","_","_","_",".","_",".",".",".","_",".",".",".",".",".",".",".","_",".",".",".","_","_",".","_",".",".",".",".",".",".",".",".",".",".",".",".",".",".",".","_","_","_","_","_","_"],[".","_",".",".",".","_","_","_",".","_",".",".",".","_",".",".",".",".",".",".",".","_",".",".",".","_","_",".","_",".",".",".",".",".",".",".",".",".",".",".",".",".",".",".","_","_","_","_","_","_"],[".","_",".",".",".","_","_","_",".","_",".",".",".","_",".",".",".",".",".",".",".","_",".",".",".","_","_",".","_",".",".",".",".",".",".",".",".",".",".",".",".",".",".",".","_","_","_","_","_","_"],[".","_",".",".",".","_","_","_",".","_",".",".",".","_",".",".",".",".",".",".",".","_",".",".",".","_","_",".","_",".",".",".",".",".",".",".",".",".",".",".",".",".",".",".","_","_","_","_","_","_"],[5,"_",4,1,0,"_","_","_",5,"_",7,8,0,"_",".",".",".",".",".",".",5,"_",4,1,0,"_","_",5,"_",7,8,".",".",".",".",".",".",".",".",".",".",".",".",5,"_","_","_","_","_","_"],[5,"_",4,1,0,"_","_","_",5,"_",7,8,0,"_",0,1,3,1,3,4,5,"_",4,1,0,"_","_",5,"_",7,8,0,1,3,1,3,4,4,5,7,5,7,8,5,"_","_","_","_","_","_"]],[[".",".",".",".",".",".",".",".",".",".",".",".",".",".",".",".",".",".",".",".",".",".",".",".",".",".",".",".",".",".",".","."],[".",".",".",".",".",".",".",".",".",".",".",".",".",".",".",".",".",".",".",".",".",".",".",".",".",".",".",".",".",".",".","."],[".",".",".",".",".",".",".",".",".",".",".",".",".",".",".",".",".",".",".",".",".",".",".",".",".",".",".",".",".",".",".","."],[".",".",".",".",".",".",2,3,".",".",".",".",".",".",2,3,".",".",".",".",".",".",2,3,".",".",".",".",".",".",2,3],[".",".",".",0,3,5,".",".",".",".",".",0,3,5,".",".",".",".",".",0,3,5,".",".",".",".",".",0,3,5,".","."],[0,3,5,".",".",".",".",".",0,3,5,".",".",".",".",".",0,3,5,".",".",".",".",".",0,3,5,".",".",".",".","."],[".",".",".",".",".",".",".",".",".",".",".",".",".",".",".",".",".",".",".",".",".",".",".",".",".",".",".",".",".",".",".","."]],[[".",".",".",".",".",".",".",".",".",".",".",".",".",".",".",".",".",".",".",".",".",".",".",".",".",".",".",".","."],[".",".",".",".",".",".",".",".",".",".",".",".",".",".",".",".",".",".",".",".",".",".",".",".",".",".",".",".","."],[".",".",".",".",".",".",".",".",".",".",".",".",".",".",".",".",".",".",".",".",".",".",".",".",".",".",".",".","."],[".",".",".",".",".",".",".",".",".",".",".",".",".",".",".",".",".",".",".",".",".",".",".",".",".",".",".",".","."],[".",".",".",".",".",".",2,3,".",".",".",".",".",".",2,3,".",".",".",".",".",".",2,3,".",".",".",".","."],[".",".",".",0,3,5,".",".",".",".",".",0,3,5,".",".",".",".",".",0,3,5,".",".",".",".",".",0,3],[0,3,5,".",".",".",".",".",0,3,5,".",".",".",".",".",0,3,5,".",".",".",".",".",0,3,5,".","."]],[[".",".",".",".",".",".",".",".","_","_","_","_",".",".",".",".",".",".",".",".","_","_","_","_",".",".",".",".",".",".",".",".","_","_","_","_",".",".",".",".",".",".",".","."],[".",".",".",".",".",".",".",".","_","_","_","_",".",".",".",".",".",".",".",".","_","_","_","_",".",".",".",".",".",".",".",".","_","_","_","_",".",".",".",".",".",".",".","."],[".",".",".",".",".",".",".",".","_","_","_","_",".",".",".",".",".",".",".",".","_","_","_","_",".",".",".",".",".",".",".",".","_","_","_","_",".",".",".",".",".",".",".","."],[".",".",".",".",".",".",0,1,"_","_","_","_",".",".",".",".",".",".",2,3,"_","_","_","_",".",".",".",".",".",".",0,1,"_","_","_","_",".",".",".",".",".",".",2,3],[".",".",".",0,1,3,".",".","_","_","_","_",".",".",".",0,3,5,".",".","_","_","_","_",".",".",".",0,1,3,".",".","_","_","_","_",".",".",".",0,3,5,".","."],[0,1,3,".",".",".",".",".","_","_","_","_",0,3,5,".",".",".",".",".","_","_","_","_",0,1,3,".",".",".",".",".","_","_","_","_",0,3,5,".",".",".",".","."],[".",".",".",".",".",".",".",".","_","_","_","_",".",".",".",".",".",".",".",".","_","_","_","_",".",".",".",".",".",".",".",".","_","_","_","_",".",".",".",".",".",".",".","."]],[[".",".",".",".",".",".",".",".","_","_",".",".",".",".",".",".",".",".","_","_",".",".",".",".",".",".",".",".","_","_",".",".",".",".",".",".",".","."],[".",".",".",".",".",".",".",".","_","_",".",".",".",".",".",".",".",".","_","_",".",".",".",".",".",".",".",".","_","_",".",".",".",".",".",".",".","."],[".",".",".",".",".",".",".",".","_","_",".",".",".",".",".",".",".",".","_","_",".",".",".",".",".",".",".",".","_","_",".",".",".",".",".",".",".","."],[".",".",".",".",".",".",9,10,"_","_",".",".",".",".",".",".",7,8,"_","_",".",".",".",".",".",".",9,10,"_","_",".",".",".",".",".",".",7,8],[".",".",".",0,10,12,".",".","_","_",".",".",".",0,8,10,".",".","_","_",".",".",".",0,10,12,".",".","_","_",".",".",".",0,8,10,".","."],[0,10,12,".",".",".",".",".","_","_",0,8,10,".",".",".",".",".","_","_",0,10,12,".",".",".",".",".","_","_",0,8,10,".",".",".",".","."],[".",".",".",".",".",".",".",".","_","_",".",".",".",".",".",".",".",".","_","_",".",".",".",".",".",".",".",".","_","_",".",".",".",".",".",".",".","."]],[[".",".",".",".",".",".",".",".","_","_",".",".",".",".",".",".",".",".","_","_",".",".",".",".",".",".",".",".","_","_",".",".",".",".",".",".",".","."],[".",".",".",".",".",".",".",".","_","_",".",".",".",".",".",".",".",".","_","_",".",".",".",".",".",".",".",".","_","_",".",".",".",".",".",".",".","."],[".",".",".",".",".",".",7,8,"_","_",".",".",".",".",".",".",9,10,"_","_",".",".",".",".",".",".",7,8,"_","_",".",".",".",".",".",".",9,10],[".",".",".",0,8,10,".",".","_","_",".",".",".",0,10,12,".",".","_","_",".",".",".",0,8,10,".",".","_","_",".",".",".",0,10,12,".","."],[0,8,10,".",".",".",".",".","_","_",0,10,12,".",".",".",".",".","_","_",0,8,10,".",".",".",".",".","_","_",0,10,12,".",".",".",".","."],[".",".",".",".",".",".",".",".","_","_",".",".",".",".",".",".",".",".","_","_",".",".",".",".",".",".",".",".","_","_",".",".",".",".",".",".",".","."],[".",".",".",".",".",".",".",".","_","_",".",".",".",".",".",".",".",".","_","_",".",".",".",".",".",".",".",".","_","_",".",".",".",".",".",".",".","."]],[["_",".",".",".",".",".",".","."],["_",".",".",".",".",".",".","."],["_",".",".",".",".",".",".","."],["_",".",".",".",".",".",9,10],["_",".",".",0,10,12,".","."],["_",10,12,".",".",".",".","."],["_",".",".",".",".",".",".","."]],[[".","_","_","_",".",".",".","_","_","_",".",".","_","_","_",".",".",".","_",".",".","."],[".","_","_","_",".",".",".","_","_","_",".",".","_","_","_",".",".",".","_",".",".","."],[".","_","_","_",".",".",".","_","_","_",".",".","_","_","_",".",".",".","_",".",".","."],[".","_","_","_",".",".",".","_","_","_",".",".","_","_","_",".",".",".","_",".",".","."],[12,"_","_","_",10,12,10,"_","_","_",".",".","_","_","_",".",".",".","_",".",".","."],[".","_","_","_",".",".",".","_","_","_",12,12,"_","_","_",10,12,10,"_",8,7,"."],[".","_","_","_",".",".",".","_","_","_",".",".","_","_","_",".",".",".","_",".",".",10]],[[".","_","_","_",".",".",".",".",".","_","_","_",".","_","_","_",".",".",".",".",".","_",".",".",".",".","_","_","_",".",".",".",".",".","_","_","_",".",".","_","_","_",".",".",".",".","_","_","_","_","_","_"],[".","_","_","_",".",".",".",".",".","_","_","_",".","_","_","_",".",".",".",".",".","_",".",".",".",".","_","_","_",".",".",".",".",".","_","_","_",".",".","_","_","_",".",".",".",".","_","_","_","_","_","_"],[".","_","_","_",".",".",".",".",".","_","_","_",".","_","_","_",".",".",".",".",".","_",".",".",".",".","_","_","_",".",".",".",".",".","_","_","_",".",".","_","_","_",".",".",".",".","_","_","_","_","_","_"],[".","_","_","_",".",".",".",".",".","_","_","_",".","_","_","_",".",".",".",".",".","_",".",".",".",".","_","_","_",".",".",".",".",".","_","_","_",".",".","_","_","_",".",".",".",".","_","_","_","_","_","_"],[".","_","_","_",5,"/",7,"\\",5,"_","_",2,2,"_","_","_",".",".",".",".",".","_",".",".",5,".","_","_","_",5,"/",7,"\\",5,"_","_","_",2,2,"_","_","_",".",".",".",".","_","_","_","_","_","_"],[0,"_","_","_",3,".",5,".",3,"_","_",0,0,"_","_","_",5,"/",7,"\\",5,"_",3,2,3,0,"_","_","_",3,".",5,".",3,"_","_","_",0,0,"_","_",5,"/",7,"\\",5,"_","_","_","_","_","_"],[0,"_","_","_",".",".",".",".",".","_","_","_",".","_","_","_",5,".",7,".",5,"_",3,2,".",0,"_","_","_",".",".",".",".",".","_","_","_",".",".","_","_",5,".",7,".",5,"_","_","_","_","_","_"]],[[".",".",".","_",".","_",".",".",".","_",".","_",".","_","."],[".",".",".","_",".","_",".",".",".","_",".","_",".","_","."],[".",".",".","_",".","_",".",".",".","_",".","_",".","_","."],[".",".",".","_",".","_",".",".",".","_",".","_",".","_","."],[".",".",".","_",".","_",".",".",".","_",".","_",".","_","."],[".",".",".","_",".","_",".",".",".","_",".","_",".","_","."],[5,5,5,"_",5,"_",5,5,5,"_",5,"_",5,"_",5]],[[".",".",".","_",".","_",".","_",".","_",".","_",".","_",".","_",".",".",".","_",".","_",".","_",".",".",".","_",".","_",".","_",".",".",".","_",".","_",".","_",".","_",".","_",".","_",".","_",".",".",".","_"],[".",".",".","_",".","_",".","_",".","_",".","_",".","_",".","_",".",".",".","_",".","_",".","_",".",".",".","_",".","_",".","_",".",".",".","_",".","_",".","_",".","_",".","_",".","_",".","_",".",".",".","_"],[".",".",".","_",".","_",".","_",".","_",".","_",".","_",".","_",".",".",".","_",".","_",".","_",".",".",".","_",".","_",".","_",".",".",".","_",".","_",".","_",".","_",".","_",".","_",".","_",".",".",".","_"],[".",".",".","_",".","_",".","_",".","_",".","_",".","_",".","_",".",".",".","_",".","_",".","_",".",".",".","_",".","_",".","_",".",".",".","_",".","_",".","_",".","_",".","_",".","_",".","_",".",".",".","_"],[".",".",".","_",".","_",".","_",".","_",".","_",".","_",".","_",".",".",".","_",".","_",".","_",".",".",".","_",".","_",".","_",".",".",".","_",".","_",".","_",".","_",".","_",".","_",".","_",".",".",".","_"],[".",".",".","_",".","_",".","_",".","_",".","_",".","_",".","_",".",".",".","_",".","_",".","_",".",".",".","_",".","_",".","_",".",".",".","_",".","_",".","_",".","_",".","_",".","_",".","_",".",".",".","_"],[5,5,5,"_",5,"_",5,"_",5,"_",5,"_",5,"_",5,"_",4,4,4,"_",4,"_",4,"_",1,1,1,"_",1,"_",1,"_",0,0,0,"_",0,"_",0,"_",0,"_",0,"_",0,"_",0,"_",0,0,0,"_"]],[[".",".",".","_",".","_",".","_",".","_",".","_",".","_",".","_",".",".",".","_",".","_",".","_",".",".",".","_",".","_",".","_",".",".",".","_",".",".",".",".",".",".","_",".",".",".","_",".",".",".","."],[".",".",".","_",".","_",".","_",".","_",".","_",".","_",".","_",".",".",".","_",".","_",".","_",".",".",".","_",".","_",".","_",".",".",".","_",".",".",".",".",".",".","_",".",".",".","_",".",".",".","."],[".",".",".","_",".","_",".","_",".","_",".","_",".","_",".","_",".",".",".","_",".","_",".","_",".",".",".","_",".","_",".","_",".",".",".","_",".",".",".",".",".",".","_",".",".",".","_",".",".",".","."],[".",".",".","_",".","_",".","_",".","_",".","_",".","_",".","_",".",".",".","_",".","_",".","_",".",".",".","_",".","_",".","_",".",".",".","_",".",".",".",".",".",".","_",".",".",".","_",".",".",".","."],[".",".",".","_",".","_",".","_",".","_",".","_",".","_",".","_",".",".",".","_",".","_",".","_",".",".",".","_",".","_",".","_",".",".",".","_",".",".",".",".",".",".","_",".",".",".","_",".",".",".","."],[".",".",".","_",".","_",".","_",".","_",".","_",".","_",".","_",".",".",".","_",".","_",".","_",".",".",".","_",".","_",".","_",".",".",".","_",".",".",".",".",".",".","_",".",".",".","_",".",".",".","."],[5,5,5,"_",5,"_",5,"_",5,"_",5,"_",5,"_",5,"_",7,7,7,"_",7,"_",7,"_",8,8,8,"_",8,"_",8,"_",0,0,0,"_",0,0,0,0,0,0,"_",4,4,4,"_",4,4,4,4]]],"numberofstrings":7,"notes":["E","B","G","D","A","E","A"],"capo":0,"stringnotes":["E3","B2","G2","D2","A1","E1","A0"],"comments":["Intro (8x)","Riff 1 with band stops","Riff 1 with band stops continued","Riff 1 together is the same as above, but with this at the end instead of holding the chord. (4x and hold the chord again on the last time)","Riff 2 (2x) The v means trem pick","Intro again","Intro again but octave up","Play Riffs 1 and 2 again, then this","Intro to Hammer Time","Intro to Hammer Time continued","Hammer Time A (play each one of thes 4 times, I didn't want to type them all out)","Hammer Time B (play each 4x)","Hammer Time C (play each 4x)","Hammer Time D (play this one 8x)","Guitar harmony thingy (play this part 2x)","Chord holdin' part","Ba-du-dun-dun Ba-du-dun-dun Dun-dun (goes a lot of times through the wah part, til the drums kick in)","Ba-du-duns with more notes! (this should 6 more low open notes on the end, but the line ended, and I wasn't wasting a whole line for it)","Same as above, ran out of space, there should be 2 more 4's at the end"],"timing":[["W","W","W","W","W","W","W","W","W","W","W","W","W","W","W","W","W","W","W","W","W","W"],["W","W","W","W","W","W","W","W","W","W","W","W","W","W","W","W","W","W","W","W","W","W","W","W","W","W","W","W","W","W","W","W","W","W","W","W","W","W","W","W","W","W","W","W","W","W","W","W","W","W","W"],["W","W","W","W","W","W","W","W","W","W","W","W","W","W","W","W","W","W","W","W","W","W","W","W","W","W","W","W","W"],["W","W","W","W","W","W","W","W"],["W","W","W","W","W","W","W","W","W","W","W","W","W","W","W","W","W","W","W","W","W",null,"W","W","W","W","W","W",null,"W",null,"W",null,"W",null,null,"W","W","W","W","W","W"],["W","W","W","W","W","W","W","W","W","W","W","W","W","W","W","W","W","W","W","W","W","W",null,"W","W","W","W","W","W","W","W","W","W","W","W","W","W","W","W","W","W","W","W","W","W"],["W","W","W","W","W","W","W","W","W","W","W","W","W","W","W","W","W","W","W","W","W","W",null,"W","W","W","W","W","W","W","W","W","W","W","W","W","W","W","W","W","W","W","W","W","W"],["W",null,"W","W","W","W",null,null,"W",null,"W","W","W","W","W","W","W","W","W","W","W",null,"W","W","W","W",null,"W",null,"W","W","W","W","W","W","W","W","W","W","W","W","W","W","W"],[null,"W","W","W","W","W","W","W","W","W","W","W","W","W","W","W","W","W","W","W","W","W","W","W","W","W","W","W","W","W","W","W","W","W","W"],["W","W","W","W","W","W","W","W","W","W","W","W","W","W",null,"W","W","W","W","W","W","W","W","W","W","W","W","W","W","W"],["W","W","W","W","W","W","W","W","W",null,null,null,"W","W","W","W","W","W","W","W",null,null,null,null,"W","W","W","W","W","W","W","W",null,null,null,null,"W","W","W","W","W","W","W","W"],["W","W","W","W","W","W","W","W",null,null,"W","W","W","W","W","W","W","W",null,null,"W","W","W","W","W","W","W","W",null,null,"W","W","W","W","W","W","W","W"],["W","W","W","W","W","W","W","W",null,null,"W","W","W","W","W","W","W","W",null,null,"W","W","W","W","W","W","W","W",null,null,"W","W","W","W","W","W","W","W"],["W","W","W","W","W","W","W","W"],["W",null,"W","W","W","W","W",null,null,null,"W","W",null,null,null,"W","W","W",null,"W","W","W"],["W","W","W",null,"W",null,"W",null,"W",null,null,"W","W",null,null,null,"W","W","W",null,"W",null,"W","W","W","W",null,null,null,"W",null,"W",null,"W",null,null,null,"W","W",null,null,"W","W","W",null,"W"],["W","W","W","W","W",null,"W","W","W",null,"W",null,"W",null,"W"],["W","W","W",null,"W",null,"W",null,"W","W","W",null,"W",null,"W",null,"W","W","W",null,"W",null,"W",null,"W","W","W",null,"W",null,"W",null,"W","W","W",null,"W",null,"W",null,"W",null,"W",null,"W",null,"W",null,"W","W","W"],["W","W","W",null,"W",null,"W",null,"W",null,"W",null,"W",null,"W",null,"W","W","W",null,"W","W","W","W","W","W","W","W","W",null,"W",null,"W","W","W",null,"W","W","W","W","W","W",null,"W","W","W",null,"W","W","W","W"]],"timingvisible":false,"tabcounter":51,"stave":18,"totalstaves":19,"instrument":"7guitar","selectedtuning":"7_drop_a","version":"13"}

Member for

7 months
Submitted by alpike on Sun, 2020-05-03 00:10